Acordes de Guitarra » B »Beth » Dime (Tab)

Dime
Beth

Letras, Acordes y Tabs para Guitarra, Bajo y Ukulele

  • Bm G A F# (x3)
    
    Bm                   G
    Mar en calma en un atardecer
            D                A
    y todo vuelve a ser como era entonces
    
    Bm                    G
    Juego con la arena entre mis pies
         D            A
    dibujando sin querer tu nombre
    
    Bm                   G
    Cuántas veces te llamé en la noche
    D                   A
    cuántas veces te busqué
    Bm           G          D           F#
    todos mis recuerdos yo vuelvo y no pierdo la fe
    
    
    
  •   A
       m a M I                       F#
    e|-5-5-5-5--3--2--0-------------|------------------------------|
    B|------------------------------|-2-0--------------------------|
    G|------------------------------|-----3------------------------|
    D|------------------------------|------------------------------|
    A|------------------------------|------------------------------|
    E|------------------------------|------------------------------|
    
    el m a M I
    se toca el meñique, anular, medio e indice como si fuera un rasgueo
    pero solo sobre esa cuerda
    
    _______________________________________________________________
    
      Bm                             G
    e|------------------------------|---------0--------------------|
    B|---0-2-3----------------------|-2-0-2-3---3-2-3--------------|
    G|-0----------------------------|------------------------------|
    D|------------------------------|------------------------------|
    
  • +
    ¡Colabora con nosotros!
    Envíanos tu versión de esta canción

Letra de Dime
Mar en calma en un atardecer
y todo vuelve a ser como era entonces
Juego con la arena entre mis pies
dibujando sin querer tu nombre
Cuántas veces te llamé en la noche
cuántas veces te busqué
todos mis recuerdos yo vuelvo y no pierdo la fe
Dime qué es lo que puedo hacer
como te puedo tener en mi vida
vamos a olvidar el ayer
y a comenzar otra vez sin mentiras
Dime qué es lo que puedo hacer
como te puedo tener en mi viiidaaaa noooooooo
Me han contado que tú estás igual
y que te sientes mal como yo
no permitas que el orgullo sea
quien decida por los dos
porque tú sabes que te quiero
y todo lo que dije no es verdad
deja tus miedos podemos si quieres volverlo a intentar
Dime qué es lo que puedo hacer
como te puedo tener en mi vida
vamos a olvidar el ayer
y a comenzar otra vez sin mentiras
Dime qué es lo que puedo hacer
como te puedo tener en mi viiida
que tú y yo sabemos
que no podemos vivir así
vuelve junto a mí.
Dime qué es lo que puedo hacer
como te puedo tener en mi vida
vamos a olvidar el ayer
y a comenzar otra vez sin mentiras
Dime qué es lo que puedo hacer
como te puedo tener en mi viiidaaaa noooooooo
dime dímelo




[Dime chords][Dime cifra]
© LaCuerda.net · aviso legal · privacidad · es · en · pt · contacto
DINAMICO