Acordes de Guitarra » B »Berzas » Resaca (Tab)

Resaca
Berzas

Letras, Acordes y Tabs para Guitarra, Bajo y Ukulele

  • Intro: G-D-C x4
      
      G                  D                         C      
    e:----------------|----------------------------|------------------------|
    B:--------------3-|---------------------3------|--------------1---------|
    G:--------0-------|--------------2----------2--|--------0---------------|
    D:----------------|-----0----------------------|------------------------|
    A:----------------|----------------------------|--3---------------------|
    E:--3-------------|----------------------------|------------------------|
    
    ..Resaca...                                           ...al despertar por las mañanas...
                                            ...dando tumbos hasta ...
    ...el W.C                                      ...echando una tras otra...
    
      Em                Bm                        C                   D 
    e:-----------0----|---------------2------------|-------------0----------|---2---|
    B:---------0---0--|------------3------3--------|-----------1----1-------|---3---|
    G:-------0-------0|---------4------------4-----|--------0----------0----|---2---|
    D:-----2----------|-----4----------------------|-----2------------------|---0---|
    A:---2------------|--2-------------------------|--3---------------------|-------|
    
  • +
    ¡Colabora con nosotros!
    Envíanos tu versión de esta canción

Letra de Resaca
..Resaca... ...al despertar por las mañanas...
...dando tumbos hasta ...
...el W.C ...echando una tras otra...
.................todas... las ... jaaaaaaaaaaaaaaaaarrrrrrraaaaaaaaaaaaaaaaaas
Resaca... , la cabeza me da vueltas
guardando los cachos gordos
para hacer, unas cocretas y tu...
ya no volverás..
No volverás..
No volverás..
Un día tras otro, me levanto resacoso
cual estropajo mi boca es
voy a entretenerme quitando
las pelotillas negras de los pies
Resaca..., sacarme cera de los oidos
hacer con ella grandes cirios
y ganar el concurso nacional y tUuUuUu..
ya no volverás..
no volverás..
no vlverás..
no volverás..
¿por qué te vas?
quería hacerte un gran regalo
rebentar mis (enormes) (grandes) granos en tu boca
y tu pensaste (que esto)...
era una idea idioOoOoOoOotaAaaaaA!!
NO VOLVERAAAAAAAS UHHHHH
NO VOLVERAAAAAAAAS UHHHHHHH
NO VOLVERAAAAAAS UHHHHHHHH
No volverás!! , no no no, no volverás!
etc.. xD
Notas:
Las voces del fondo no las escribo.
El solo ya lo sacaré con eléctrica, pero por ahora,
ya que me tengo que ir a clase, vale con esto.
Esperemos que se vuelvan a juntar,
peazo de grupo (http://usuarios.lycos.es/meadero/musica/musica.htm)
/////////////// Es mi primera movida, es decir, que todo lo que sean mejoras,
///////////////ayudas, dinero y demás, son bienvenidas :*
/////////////// Todo lo anterior, a BloodyMeryBloodyMery@hotmail.com :)
/////////////// Dedicada a la Lupaitas que me tiene que aguantar todos los días ;)

Video de Resaca
[]




[Resaca chords][Resaca cifra]
© LaCuerda.net · aviso legal · privacidad · es · en · pt · contacto