Tablatura para Bajo de Bersuit Vergarabat: Perro amor explota
Conexión · Inscripción
Letras y Acordes
Pantalla Completa
Imprimir
Versión Texto
Añadir Favorito
Otras Versiones

Mostrar Diagramas
Desfile Automático
Formato del Texto


Bersuit Vergarabat
Perro amor explota(BAJ)
calidad:
bers0345
AUTOR: Cordera, Carlos Martin
ALBUM: De la Cabeza Con Bersuit Vergarabat (2002)
Enviado por martin
1)-00:21

G|--------------------------
D|--------------------------
A|------------------3-3-2-2-
E|-7>0------0-0-3-3---------

2)-00:25
G|--------------------------------
D|--------------------------------
A|--7-7-10-10---------------------
E|------------8-8-7-7-------------
SIGUE ASÍ HASTA EL ESTRIBILLO

3)-01:24

ESTRIBILLO:
G|---------------------------------------
D|---------------------------------------
A|-3------3----------5-5-2-2-2--3-3-4-4--
E|---0-2-3--0--2-3-3---------------------

4)-01:40

G|-------------------------
D|---------------4--4------
A|----------3-3-2-2--------
E|-0-0-2-3-3---------------
SIGUE ASI HASTA LA PARTE DEL CORO “EL AMOR EXPLOTA”

5)-02:02

G|----------------------
D|----------------------
A|-3-3-----7-7-5-5------
E|-----3-3--------------

“MIRA A DONDE DEJAS LA BASURA”:


G|----------------------
D|----------------------
A|-7-7-10-10------------
E|-----------8-8-7-7----

G|----------------------
D|----------------------
A|-3-3-----7-7-5-5------
E|-----3-3--------------


SOLO(CON EL 2)


ESTRIBILLO:
2:29

ESTRIBILLO:
G|---------------------------------------------
D|--------------------------------------9-9-9-9
A|-3------3----------5-5-2-2-2--3-3-4-4--------
E|---0-2-3--0--2-3-3---------------------------


AHORA VIENE LA PARTE CON EL BAJO SOLO

2:49

G|---------------------------------------
D|---5--4----5-------5---4---5-----------
A|-3--4----7---2-1-3---4---7---1-2-------
E|---------------------------------------   -X 2


3:22

IGUAL A LA PARTE 4)

FINAL

G|----------------------
D|----------------------
A|-3-3-3-2--------2-7-----
E|---------5-3-0--------





BUENO, EL TEMA NO ES MUY DIFICIL
EN ALGUNAS PARTES METE ALGUNAS NOTAS MAS,
PERO “LA BASE ESTA”

CUALQUIER DUDA O CORRECIÓN
ESCRIBANME A TINCHOARA@HOTMAIL.COM

GRACIAS.
Este fichero es trabajo propio de su transcriptor y representa su interpretación personal de la canción. El material contenido en esta página es
para exclusivo uso privado, por lo que se prohibe su reproducción o retransmisión, así como su uso para fines comerciales.
© LaCuerda.net · Aviso Legal · Privacidad