Tablatura para Bajo de Bersuit Vergarabat: Murguita del sur
Conexión · Inscripción
Letras y Acordes
Pantalla Completa
Imprimir
Versión Texto
Añadir Favorito
Otras Versiones

Mostrar Diagramas
Desfile Automático
Formato del Texto


Bersuit Vergarabat
Murguita del sur(BAJ)
calidad:
bers0196
AUTOR: Gustavo Cordera
ALBUM: Libertinaje
Enviado por Franco
Transcripcion del solo de bajo de la version de DE LA CABEZA, para 6
cuerdas con AFINACION DE GUITARRA (e B G D A E).

Salieron al mercado unas cuerdas que van en la guitarra criolla, o
electroacustica, y suenan como bajo acustico, con afinacion de guitarra

Si tenes un bajo de 4 cuerdas es posible pasar las notas hacia los
trastes mas agudod de las cuedas mas graves. Por ejempo, el traste 7
de la segunda cuerda (cuerda B, nota F#) es la misma nota que la del
traste 11 de la tercera cuerda (cuerda G, nota F#)



amennnn                   D                          D
e|---------------------------------------------------------------------
B|-----------------7/9-10-10--7/9-9---7-7------------------------------
G|-----------6/7-9------------------9-----7/9-9--6/7-7-6---6-7-6---6---
D|6-7-9--7/9---------------------------------------------9-------9---9-
A|---------------------------------------------------------------------
E|---------------------------------------------------------------------



             E                        E                  D
-----------------------------------------------------------------------
----------------------------------7---7/9-7----------------------------
----------------------------7/9 9---9------9-6-7-6---------------------
7---7-7-6-------------6-7/9--------------------------7-9-9-7-9/11-9-7-7
--9-------9--7|---7/9------------------------------9-------------------
-----------------------------------------------------------------------


      D                            E                         E
-----------------------------------------------------------------------
-------------------------------------------=7=-------------------------
-------------------------------------------=11=--9-7-6-----------------
----7-9-9-7-9/11-9-7-7-----7-9-7-9/11-9-9--------------9-7-6-----------
9-9--------------------9-9-----------------------------------6/7-7-9-9-
-----------------------------------------------------------------------


--------------------||e
--------------------||B
--------6-7---------||G
6-6-7-9-------------||D
--------------------||A
--------------------||E

Tener en cuenta que las primeras 3 notas casi no se escuchan porque
van cuando todavia estan cantando el ultimo 'amennn'. Ademas, en la
parte que escribi =7=  es porque es la misma nota, pero en distinta
                  =11=
cuerda, y por comodidad se puede elegir en cuál cuerda tocar.


Saludos.
Este fichero es trabajo propio de su transcriptor y representa su interpretación personal de la canción. El material contenido en esta página es
para exclusivo uso privado, por lo que se prohibe su reproducción o retransmisión, así como su uso para fines comerciales.
© LaCuerda.net · Aviso Legal · Privacidad