Acordes de Guitarra » B »La Beriso » Salir (Tab)

Salir
La Beriso

Letras, Acordes y Tabs para Guitarra, Bajo y Ukulele

  • Intro: F#m
    
    
    D|-4---|-0-2-4---|
    G|---2-|-------2-|
    B|---2-|-------2-|
    e|---2-|-------2-|
    
    
    
      (Riff 1) (Riff 2)   (Riff 3)       (Riff 4)
    A|---------|-2-4---|---------------|-------------|
    D|-0-2-4---|-----0-|-------------4-|-------4-2-0-|
    G|-------2-|-------|---------4-2---|-2/4/2-------|
    B|-------2-|-------|-2-2-2-2-------|-2/4/2-------|
    e|-------2-|-------|---------------|-------------|
    
    
    F#m      E           F#m (Riff 1 x2)
    Como no ver la realidad
    
  • +
    ¡Colabora con nosotros!
    Envíanos tu versión de esta canción

Letra de Salir
(Riff 1) (Riff 2) (Riff 3) (Riff 4)
Como no ver la realidad
como salir sin preguntar
voy a salir ver el sol
como un último deseo de mi corazón
Adónde está la verdad
me pregunté hace un tiempo atrás
hoy me voy a ver el sol
como me dice el corazón
Salir, morir acá
no ves, no hay lugar
(E|-0-1-|) F#m (Riff 1)
para descansar…
Negros recuerdos del pasado
miles de años maltratados
hoy me voy a ver el sol
para irme por un rato y recordar mejor
Salir, morir acá
no ves, no hay lugar
(E|-0-1-|) F#m (Riff 1)
para descansar…
E [-- (5 golpes)
Salir, morir acá
no ves, no hay lugar
Salir, morir acá
no ves, no hay lugar
(E|-0-1-|) F#m (Riff 1)
para descansar…
Bueno gente temasooo!!! muy divertido de tocar :D
espero les guste y les sirva abrasos...




[Salir chords][Salir cifra]
© LaCuerda.net · aviso legal · privacidad · es · en · pt · contacto
DINAMICO