Acordes de Guitarra » B »Barricada » Pídemelo otra vez (Tab)

Pídemelo otra vez
Barricada

  • ------
    G F/G
    
    Estrofa:
    --------
    G   F/G           F/G              F/G
    Oyeme, no llores mas ,cubrete la cara
         F/G         F/G             F/G
    mirame,todo va bien,dame una palabra
    C
    solitaria en un portal diste tu cuerpo
                    G
    aun principe vulgar
    
    Estribilho:
    -----------
    A#    C  Am        D
    Llegara la madrugada
    A#
    pidemelo
    
  • -5-5-5---5-6-5-------------------8-5---5---------------------------------------
    -------6-------8-6-8-----------8-----8---8-6-5-6------------6-8-6-5-6-5--------
    ---------------------5-5-----5-------------------7-7-----5-7------------7-5-7--
    -------------------------------------------------------------------------------
    -------------------------------------------------------------------------------
    -------------------------------------------------------------------------------
    
    
    
    
    
    ----------------------------------5------5-6-----5-6-8-6-12-6(Largo)----------
    -----5------5-6-----5-6-8-----6-8------8--------------------------------------
    -5-7------7-------------------------------------------------------------------
    ------------------------------------------------------------------------------
    ------------------------------------------------------------------------------
    ------------------------------------------------------------------------------
    
    
    
    
  • +
    ¡Colabora con nosotros!
    Envíanos tu versión de esta canción

Letra de Pídemelo otra vez
Estrofa:
Oyeme, no llores mas ,cubrete la cara
mirame,todo va bien,dame una palabra
solitaria en un portal diste tu cuerpo
aun principe vulgar
Estribilho:
Llegara la madrugada
pidemelo
pidemelo otravez
Letra:
Oyeme, no llores mas ,cubrete la cara
mirame,todo va bien,dame una palabra
solitaria en un portal diste tu cuerpo
aun principe vulgar
Donde estan esos ojos
los dias de lluvia
donde vas vendiendo tu amor
por calles vacias
Estan facil recordar buscando algo
a cambio de una sombra
Llegara la madrugada
pidemelo otra vez
pidemelo otravez
Donde estan esos ojos
los dias de lluvia
donde vas vendiendo tu amor
por calles vacias




[Pídemelo otra vez chords][Pídemelo otra vez cifra]
© LaCuerda.net · aviso legal · privacidad · es · en · pt · contacto