Acordes de Guitarra » B »Los Baron de Apodaca » Cuando Nadie Te Quiera (Tab)

Cuando Nadie Te Quiera
Los Baron de Apodaca

Letras, Acordes y Tabs para Guitarra, Bajo y Ukulele

  •                                     F
    |-5-5-5-6-5-8-8-5-5-6-5-8-3-5-6-5-3-1---|
    |-----------------------------------1---|
    |-5-5-5-7-5-9-9-5-5-7-5-9-3-5-7-5-3-2---|
    |-----------------------------------3---|
    |-----------------------------------3---|
    |-----------------------------------1---|
    
    
    
    Cuando nadie te quiera 
    
            C  D  E         F
    Cuando todos te olviden
    
                                        C
    Volveras al camino donde yo me quede
    
                    A#            B           C
    Volveras como todas con el alma en pedazos
    
  •                                     E
    
    |-4-4-4-5-4-7-7-4-4-5-4-7-2-4-5-4-2-0---|
    |-----------------------------------0---|
    |-4-4-4-6-4-8-8-4-4-6-4-8-2-4-6-4-2-1---|
    |-----------------------------------2---|
    |-----------------------------------2---|
    |-----------------------------------0---|
    
    
                           A-A#-B
    Cuando nadie te quiera
    
                       E
    Cuando todos te olviden
    
                                       B
    Volverás al camino donde yo me quedé
    
                    A          A#         B
    
  • +
    ¡Colabora con nosotros!
    Envíanos tu versión de esta canción

Letra de Cuando Nadie Te Quiera
Cuando nadie te quiera
Cuando todos te olviden
Volveras al camino donde yo me quede
Volveras como todas con el alma en pedazos
A buscar en mis brazos un poquito de fe
Cuando ya de tu orgullo no te quede ni gota
Ya la luz de tus ojos se comienze apagar
Hablaremos entonces del amor de nosotros
Y sabras que mis besos los que tanto desprecias
Van acerte llorar
Acordes De Fondo De los solos de guitarra y teclado
Cuando nadie te quiera
Cuando todos te olviden
Y un destino implacable quiera ver tu final
Yo estare en el camino donde tu me dejaste
Con los brazos abiertos y un amor inmortal
Yo no quiero que sepas que no se de rencores
Que a travez de mi madre me enseñe a perdonar
Y una vez que conozcas mis tristezas de amores
Aunque tu no quisieras aunque nadie quisiera

Me tendras que adorar
todos los tonos que es tan entre palabras se tocan rapido, para llegar al tono siguiente
espero que les guste esta transcripcion




[Cuando Nadie Te Quiera chords][Cuando Nadie Te Quiera cifra]
© LaCuerda.net · aviso legal · privacidad · es · en · pt · contacto