Acordes de Guitarra » B »Banda R-15 » Arreando la mula (Tab)

Arreando la mula
Banda R-15

Letras, Acordes y Tabs para Guitarra, Bajo y Ukulele

  • Yepa-Yepa
    
    Esta canción habia sido pedida en diversas ocasiones, pues bien...
    aquí está ...
    
    Arriba la Rondalla del St. y V13
    
    Ahua!!! a mover los dedos...
    
    e|----------------------------------------------------5-|
    B|-------10-------------------------------------------7-|
    G|--9/11----11-9----------7---------------------------7-|
    D|---------------12---7/9---9-7----------7------------7-|
    A|------------------------------10---7/9---9/7----------|
    E|---------------------------------------------9-10-----|
    
    |----------------------------------------------------5-|
    |-------10-------------------------------------------7-|
    |--9/11----11-9----------7---------------------------7-|
    |---------------12---7/9---9-7----------7------------7-|
    |------------------------------10---7/9---9/7----------|
    |---------------------------------------------9-10-----|
    
    |-----------------------------------------------------------------|
    |-----------------------------------------------------------------|
    |--9/11-11-1
  • +
    ¡Colabora con nosotros!
    Envíanos tu versión de esta canción



Video de Arreando la mula
[]




[Arreando la mula chords][Arreando la mula cifra]
© LaCuerda.net · aviso legal · privacidad · es · en · pt · contacto