Acordes de Guitarra » B »Banda Maizera » Extrañándote (Tab)

Extrañándote
Banda Maizera

Letras, Acordes y Tabs para Guitarra, Bajo y Ukulele

  •    G          Bm        C           D7
     E----------------1--------------------2---
     B------3-------------------1---------1--1---
     G--------------4---4----------2-----2-----2-
     D----5--5----4----------2---------0-------
     A--5------------------3-------------------
     E-----------------------------------------
    
              G
    Sabes bien
               Bm
    que no podré
       Em               Bm
    fingir al mundo mi dolor
            C         Am            D7
    sabes bien mi corazón solo ha latido por tu amor
    
    
          G
    dejare
    
  •    G          Bm        C           D7
     E----------------1--------------------2---
     B------3-------------------1---------1--1---
     G--------------4---4----------2-----2-----2-
     D----5--5----4----------2---------0-------
     A--5------------------3-------------------
     E-----------------------------------------
    
              G
    Sabes bien
               Bm
    que no podré
                      C
    fingir al mundo mi dolor
                       D7
    sabes bien mi corazón solo ha latido por tu amor
    
    
          G
    dejare
    
  • +
    ¡Colabora con nosotros!
    Envíanos tu versión de esta canción

Letra de Extrañándote
Sabes bien
que no podré
fingir al mundo mi dolor
sabes bien mi corazón solo ha latido por tu amor
dejare
dejare
que la marea baje amor
dejare que reconozcas que aquí sigo con pasión
Rasgueo (2 veces)
extrañándote
esperandote
fingiendo al mundo mi dolor
mientras te acuerdas que aquí estoy
extrañándote
esperándote
como la noche espera al sol
aquí estaré por ti mi amor
Extrañándote....
Esperándote....
Esta rola se la dedico a verónica que la quiero un chingo
Espero les guste esta versión

Video de Extrañándote
[]




[Extrañándote chords][Extrañándote cifra]
© LaCuerda.net · aviso legal · privacidad · es · en · pt · contacto
DINAMICO