Acordes de Guitarra » B »Banda 3 ríos » Banda Dominguera (Tab)

Banda Dominguera
Banda 3 ríos

Letras, Acordes y Tabs para Guitarra, Bajo y Ukulele

  • Intro   Bb  F7  Bb (4)  Bb  F7  Bb (2)  F7  Bb (2)  G7  Cm  F7  Bb
    
                          Bb
    Tengo una banda dominguera
                              F7
    que siempre toca en la plaza,
    con una tuba grandota,
                          Bb
    y unos platillos de lata.
    
    El perro que mueve la cola
    el niño quiere un biscocho,
    LA AbueLA vende galletas,
    el cura pide devotos.
    
    CORO I
                 F7                Bb
    Siempre lo mismo me pasa lo mismo,
                     F7                Bb
    pensar que el domingo es para descansar,
    
  • e:----------------------------------------------------
    B:-6-3-6-3-6-3-6--------------------------------------
    G:---------------3-3-3-3-3-3-2-3-5----------------5---
    D:---------------------------------3--3-3-3-3-3-3---3-
    A:----------------------------------------------------
    E:----------------------------------------------------
    
    e:------------------
    B:------------------
    G:-------------3-3--
    D:-3-3-3-3-3-3------
    A:------------------
    E:------------------
    
    
    ( DE PREFERENCIA HACER LOS ACORDES CON CEJILLA ES MAS FACIL)....
    
    
    ( PARTE 1 )..........................
    
    
  • +
    ¡Colabora con nosotros!
    Envíanos tu versión de esta canción

Letra de Banda Dominguera
Tengo una banda dominguera
que siempre toca en la plaza,
con una tuba grandota,
y unos platillos de lata.
El perro que mueve la cola
el niño quiere un biscocho,
el cura pide devotos.
Siempre lo mismo me pasa lo mismo,
pensar que el domingo es para descansar,
y yo que vivo juntado papeles,
me voy a quejar a la municipalidad.
Se repiten Primeras 2 Estrofas
Y sin embargo me gusta la banda,
cuando los Domingos se pone a tocar,
y yo papeles llevando este ritmo,
que a toda la plaza parece contagiar.




[Banda Dominguera chords][Banda Dominguera cifra]
© LaCuerda.net · aviso legal · privacidad · es · en · pt · contacto