Acordes de Guitarra » B »Bajo Tierra » Las puertas del amor (Tab)

Las puertas del amor
Bajo Tierra

Letras, Acordes y Tabs para Guitarra, Bajo y Ukulele

  • d|------------------------------------------||
     |------------------------------------------||
     |--2-----2--1------1---0-----0-------------|| (x2)
     |-----2---------2---------2-----4---0---4--||
     |------------------------------------------||
    D|------------------------------------------||
    /
    
    ARPEGIO PRINCIPAL (variaciones de Am):
    
        (Se repite durante toda la estrofa)
    d|--------0---------0--------0--------0-----||
     |-----1---------1--------1--------1-----1--||
     |--2---------1--------0--------------------||
     |------------------------------4-----------||
     |------------------------------------------||
    D|------------------------------------------||
    /
    
    RIFF INTERMEDIO:
    
  • +
    ¡Colabora con nosotros!
    Envíanos tu versión de esta canción

Letra de Las puertas del amor
/
ARPEGIO PRINCIPAL (variaciones de Am):
(Se repite durante toda la estrofa)
/
RIFF INTERMEDIO:
La trompeta hace algo así:
/ /
Luego la guitarra hace un rítmo rápido con Dm y Am.
Al final termina con un Em y cae a Am. En la letra se explica mejor
cómo y cuándo se hacen los cambios.
*****************************************************
*****************************************************
El resultado final, sería algo así:
ARPEGIO PRINCIPAL
Las puertas del amor, se cierran en mi cara.
Lo nuestro terminó, la cosa está muy clara.
Soy ave del dolor, que canta en tu ventana.
Y eso que digo hoy, no lo sostengo mañana.
}
ARPEGIO PRINCIPAL
Mil calles transité, entre fieras y balas.
El juego me curtió, no me funciona el alma.
}
ARPEGIO PRINCIPAL
La puerta se cerró, soplándome en la cara.
La llave se perdió, no sirven tus plegarias.
La vida se me fue, en cosas de barriada.
Mi tiempo terimnó, soy cuenta cancelada.
}
RIFF INTERMEDIO
Y tiemblo y tiemblo mi amor.
Y tiemblo y tiemblo mi amor.
Escalofrío y sudor.
Y tiemblo y tiemblo mi amor.
Escalofrío y sudor.
Y tiemblo y tiemblo mi amor.
Escalofrío y sudor.
Si te hace falta ya sé, dile que te abandoné.
Y tiemblo y tiemblo mi amor.
Y tiemblo y tiemblo mi amor.
Y tiemblo y tiemblo mi amor.
Y tiemblo y tiemblo mi amor.
Escalofrío y sudor.
A veces lo que más duele resulta ser lo mejor, ser lo mejor.
A veces lo que más duele resulta ser lo mejor, ser lo mejor.
A veces lo que máś QUIERES resulta ser lo PEOR.
}
La canción termina con el teclado tocando:
/

Video de Las puertas del amor
[]




[Las puertas del amor chords][Las puertas del amor cifra]
© LaCuerda.net · aviso legal · privacidad · es · en · pt · contacto