Acordes de Guitarra » B »Bajo Llave » No te quiero (Tab)

No te quiero
Bajo Llave

Letras, Acordes y Tabs para Guitarra, Bajo y Ukulele

  •    D          Db
    E|--------------------------|
    B|--------------------------|
    G|---7-----7-----7-----7----|
    D|---7-----7-----7-----7----|
    A|-5---5-5---5-4---4-4---4--|X2
    E|--------------------------|
    
       Bm           G           D            A
    E|---------------------------------------5-|
    B|---3-----3-----------------------------5-|
    G|---4-----4------4-----4-----7-----7----6-|
    D|---4-----4------5-----5-----7-----7----7-|
    A|-2---2-2---2----5-----5---5---5-5---5--7-|
    E|--------------3---3-3---3--------------5-|
    
    
    D                 Db
    Te vas de mi no hubo explicación,
    D                     Db
    
  • +
    ¡Colabora con nosotros!
    Envíanos tu versión de esta canción

Letra de No te quiero
Te vas de mi no hubo explicación,
Olvido los momentos que me dio tu amor,
Tu sonrisa no la quiero recordar pues en mi vida…
alguien mejor estará…
Que te importa si te he de recordar,
Los desprecios de mi vida con el silencio te caerán.
Espérame sentada en el lugar donde tu corazón me hacia palpitar,
Y dile a tus tontos amiguitos que no te voy a extrañar.
"coro"
-ya no te quiero… (x 4)
Vistiendo la ropa que me diste para empacar,
La rayare con mis grupos favoritos,
Y las blancas a cuadritos las voy a decorar.
Espérame sentada en el lugar donde tu corazón me hacia palpitar,
Y dile a tus tontos amiguitos que no te voy a extrañar.
"coro"
-ya no te quiero… (x 4)
Ritmo reggae ACOMPAÑAMIENTO PAR EL PUNTEO
No es que te extrañe, por qué la paso mejor con mis amigos,
He pasado por malos ratos, y pasado por lo malo de estar contigo,
Me siento mal cuando recuerdo que felices fuimos,
Pero lo echaste a perder con tu amigo.
]x2
G|-7-7-7--9-9-9--12-12-12-11-10-| ]
A|-5-5-5--7-7-7--10-10-10-9--8--|
"coro"
-ya no te quiero… (x 4)
Dudas ya saben,escríbanme !




[No te quiero chords][No te quiero cifra]
© LaCuerda.net · aviso legal · privacidad · es · en · pt · contacto
DINAMICO