Tablatura para Bajo de los Babasónicos: Yegua
Conexión · Inscripción
Letras y Acordes
Pantalla Completa
Imprimir
Versión Texto
Añadir Favorito
Otras Versiones

Mostrar Diagramas
Desfile Automático
Formato del Texto


Yegua(BAJ)

los Babasónicos

calidad:
baba1032
AUTOR: los Babasónicos  corregir
ALBUM: Anoche (2005)
Enviado por esrock22
  1   2   3   4   |

G|----------------|----------------|----------------|----------------|
D|----------------|----------------|----------------|----------------|
A|2-2-2-2---2-2---|5-5-5-5---5-5---|7-7-7-7---7-7---|--------------0-|
E|----------------|----------------|----------------|3-3-3-3---3-3---|

G|----------------|----------------|----------------|----------------|
D|----------------|----------------|----------------|----------------|
A|2-2-2-2---2-2---|5-5-5-5---5-5---|7-7-7-7---7-7---|----------------|
E|----------------|----------------|----------------|3-3-3-3---3-3---|


VERSOS

  1   2   3   4   |

G|----------------|----------------|----------------|----------------|
D|----------------|----------------|----------------|----------------|
A|2-----2---2-----|5-----5---5---5-|----------------|0-----0---0---0-|
E|----------------|----------------|3-----3---3-----|----------------|

G|----------------|----------------|----------------|
D|----------------|----------------|----------------|
A|----------------|----------------|--------------0-|
E|0-----0---0---0-|3-----3---3-----|2-----2---2-----|


G|----------------|----------------|----------------|----------------|
D|----------------|----------------|----------------|----------------|
A|2-----2---2-----|5-----5---5---5-|----------------|0-----0---0---0-|
E|----------------|----------------|3-----3---3-----|----------------|

G|----------------|----------------|----------------|----------------|
D|----------------|----------------|----------------|----------------|
A|----------------|----------------|----------------|----------------|
E|0-----0---0---0-|3-----3---3---3-|2-----2---2-----|2-----2---2---0-|


PRE CORO

  1   2   3   4   |

G|----------------|----------------|----------------|----------------|
D|------7---------|------9---------|------4-----0---|------4---------|
A|5-----------5---|7-----------7-5-|2---------------|2---2-------2---|
E|----------------|----------------|----------------|----------------|

G|----------------|----------------|----------------|----------------|
D|----------------|----------------|------4---------|----------------|
A|5-----------5---|7-----------7---|2-----------2---|------7---------|
E|------5---------|------7---------|----------------|5---5-------5---|


G|----------------|----------------|----------------|----------------|
D|----------------|----------------|----------------|----------------|
A|----------------|----------------|----------------|----------------|
E|3-3-3-3---------|0-0-0-0---------|3-3-3-3---------|0-0-0-0---------|

G|----------------|----------------|
D|----------------|--2-----2-------|
A|0---0---0---0---|0---0-0---0-0---|
E|----------------|----------------|


CORO


  1   2   3   4   |

G|----------------|----------------|----------------|----------------|
D|----------------|----------------|----------------|----------------|
A|2-2-2-2---2-2---|5-5-5-5---5-5---|7-7-7-7---7-7---|--------------0-|
E|----------------|----------------|----------------|3-3-3-3---3-3---|

G|----------------|----------------|----------------|----------------|
D|----------------|----------------|----------------|----------------|
A|2-2-2-2---2-2---|5-5-5-5---5-5---|7-7-7-7---7-7---|----------------|
E|----------------|----------------|----------------|3-3-3-3---3-3---|


VERSOS

  1   2   3   4   |

G|----------------|----------------|----------------|----------------|
D|----------------|----------------|----------------|----------------|
A|2-----2---2-----|5-----5---5---5-|----------------|0-----0---0---0-|
E|----------------|----------------|3-----3---3-----|----------------|

G|----------------|----------------|----------------|----------------|
D|----------------|----------------|----------------|----------------|
A|----------------|----------------|----------------|----------------|
E|0-----0---0---0-|3-----3---3---3-|2-----2---2-----|2-----2---2---0-|


PRE CORO

  1   2   3   4   |

G|----------------|----------------|----------------|----------------|
D|------7---------|------9---------|------4-----0---|------4---------|
A|5-----------5---|7-----------7-5-|2---------------|2---2-------2---|
E|----------------|----------------|----------------|----------------|

G|----------------|----------------|----------------|----------------|
D|----------------|----------------|------4---------|----------------|
A|5-----------5---|7-----------7---|2-----------2---|------7---------|
E|------5---------|------7---------|----------------|5---5-------5---|


G|----------------|----------------|----------------|----------------|
D|----------------|----------------|----------------|----------------|
A|----------------|----------------|----------------|----------------|
E|3-3-3-3---------|0-0-0-0---------|3-3-3-3---------|0-0-0-0---------|

G|----------------|----------------|
D|----------------|--2-----2-------|
A|0---0---0---0---|0---0-0---0-0---|
E|----------------|----------------|


PRE CORO 2

  1   2   3   4   |

G|----------------|----------------|----------------|----------------|
D|----------------|----------------|----------------|----------------|
A|2-----2---2-----|5-----5---5---5-|----------------|----------------|  X 2
E|----------------|----------------|3-----3---3-----|5-----5---5---5-|


CORO FINAL


  1   2   3   4   |

G|----------------|----------------|----------------|----------------|
D|----------------|----------------|----------------|----------------|
A|2-2-2-2---2-2---|5-5-5-5---5-5---|7-7-7-7---7-7---|--------------0-|
E|----------------|----------------|----------------|3-3-3-3---3-3---|

G|----------------|----------------|----------------|----------------|
D|----------------|----------------|----------------|----------------|
A|2-2-2-2---2-2---|5-5-5-5---5-5---|7-7-7-7---7-7---|----------------|
E|----------------|----------------|----------------|3-3-3-3---3-3---|
Este fichero es trabajo propio de su transcriptor y representa su interpretación personal de la canción. El material contenido en esta página es
para exclusivo uso privado, por lo que se prohibe su reproducción o retransmisión, así como su uso para fines comerciales.

© LaCuerda.net · Aviso Legal · Privacidad