Tablatura para Bajo de los Babasónicos: Y qué?
Conexión · Inscripción
Letras y Acordes
Pantalla Completa
Imprimir
Versión Texto
Añadir Favorito
Otras Versiones

Mostrar Diagramas
Desfile Automático
Formato del Texto


Y qué?(BAJ)

los Babasónicos

calidad:
baba0803
AUTOR: los Babasónicos  corregir
ALBUM: Infame (2003)
Enviado por nOoKIE*
Bajo

G||-------|------|--------------------------|-------------------------|
D||*------|------|--2--2----0-----------0-2-|----2----0-----------0-2-|
A||*------|------|--------2----0------2-----|-------2----0------2-----|
E||-------|------|--------------------------|-------------------------|



-------------------------|----------------------|--------------------------|
----2----0-----------0-2-|----2----0------------|--2--2----0-----------0-2-|
-------2----0------2-----|-------2----0---------|--------2----0------2-----|
-------------------------|----------------------|--------------------------|



-------------------------|-------------------------|--------------------------|
----2----0-----------0-2-|----2----0-----------0-2-|----2----0----------------|
-------2----0------2-----|-------2----0------2-----|-------2----3---3----3--5-|
-------------------------|-------------------------|-------------------3------|



-------------|--------------------------|-------------------------|
-------------|--2--2----0-----------0-2-|----2----0-----------0-2-|
----5----5---|--------2----0------2-----|-------2----0------2-----|
-------5-----|--------------------------|-------------------------|



-------------------------|-------------------------|--------------------------|
----2----0-----------0-2-|----2----0-----------0-2-|----2----0----------------|
-------2----0------2-----|-------2----0------2-----|-------2----3---3----3--5-|
-------------------------|-------------------------|-------------------3------|



-------------|-----------------------|-----------------------------|
-------------|-----------------------|-----------------------------|
----5----5---|--7--7--7---7--7-------|--5--5--5---5--5----10-11-12-|
-------5-----|-----------------------|-----------------------------|



-----------------------|-----------------------------|
-----------------------|-----------------------------|
--7--7--7---7--7-------|--5--5--5---5--5----10-11-12-|
-----------------------|-----------------------------|



--------------------------|-------------------------|-------------------------|
--2--2----0-----------0-2-|----2----0-----------0-2-|----2----0-----------0-2-|
--------2----0------2-----|-------2----0------2-----|-------2----0------2-----|
--------------------------|-------------------------|-------------------------|



--------------------------|-------------|--------------------------|
----2----0----------------|-------------|--2--2----0-----------0-2-|
-------2----3---3----3--5-|----5----5---|--------2----0------2-----|
-------------------3------|-------5-----|--------------------------|



-------------------------|-------------------------|-------------------------|
----2----0-----------0-2-|----2----0-----------0-2-|----2----0-----------0-2-|
-------2----0------2-----|-------2----0------2-----|-------2----0------2-----|
-------------------------|-------------------------|-------------------------|



--------------------------|-------------|-----------------------|
----2----0----------------|-------------|-----------------------|
-------2----3---3----3--5-|----5----5---|--7--7--7---7--7-------|
-------------------3------|-------5-----|-----------------------|



-----------------------------|-----------------------|
-----------------------------|-----------------------|
--5--5--5---5--5----10-11-12-|--7--7--7---7--7-------|
-----------------------------|-----------------------|



-----------------------------|--------------------------|
-----------------------------|--------------------------|
--5--5--5---5--5----10-11-12-|-------------0---0--0--0--|
-----------------------------|--0--0--0-0---------------|



--------------------------|--------------------------|-----------------------|
--------------------------|--------------------------|-----------------------|
-------------0---0--0--0--|-------------0---0--0--0--|-------------0---------|
--0--0--0-0---------------|--0--0--0-0---------------|--0--0--0-0------------|



--------|--------|--4--4--4--4--7--7--7--9--9--9--9--9--11--11--11-14-|
--------|--------|----------------------------------------------------|
--------|--------|----------------------------------------------------|
--------|--------|----------------------------------------------------|



--4--4--4--4--7--7--7--9--12--12--12--12------|--14--14--14--14------|
----------------------------------------------|----------------------|
----------------------------------------------|----------------------|
----------------------------------------------|----------------------|



-----------------------|-----------------------------|-----------------------|
-----------------------|-----------------------------|-----------------------|
--7--7--7---7--7-------|--5--5--5---5--5----10-11-12-|--7--7--7---7--7-------|
-----------------------|-----------------------------|-----------------------|



-----------------------------|--------------------------|
-----------------------------|--------------------------|
--5--5--5---5--5----10-11-12-|--3--3--3---5--5--5--5--5-|
-----------------------------|--------------------------|



-----------------------|--------------------------|-----------------------|
-----------------------|--------------------------|-----------------------|
--7--7--7---7--7-------|--3--3--3---5--5--5--5--5-|--7--7--7---7--7-------|
-----------------------|--------------------------|-----------------------|



--------------------------|-------------------||
--------------------------|-------------------||
--3--3--3---5--5--5--5--5-|-------------------||
--------------------------|--0----------------||
Este fichero es trabajo propio de su transcriptor y representa su interpretación personal de la canción. El material contenido en esta página es
para exclusivo uso privado, por lo que se prohibe su reproducción o retransmisión, así como su uso para fines comerciales.

© LaCuerda.net · Aviso Legal · Privacidad