Tablatura para Guitarra de los Babasónicos: El Colmo
Conexión · Inscripción
Letras y Acordes
Pantalla Completa
Imprimir
Versión Texto
Añadir Favorito
Otras Versiones

Mostrar Diagramas
Desfile Automático
Manipular Acordes
Formato del Texto


El Colmo(TAB)

los Babasónicos

calidad:
baba1023
AUTOR: Adrian Rodriguez
ALBUM: Anoche (2005)
Enviado por Aldo
INTRO:
GUITARRA 1
e--4-----2------4-----2---------5-----4-------5-----4------
B----2------------2---------------3-------------3----------
G------3------------3---------------4-------------4--------
D----------------------------------------------------------
A----------------------------------------------------------
E----------------------------------------------------------

GUITARRA 2
e--------12-------------12-------------12-------------12---
B---9/10-----------9/10-----------9/10-----------9/10------
G----------------------------------------------------------
D----------------------------------------------------------
A----------------------------------------------------------
E----------------------------------------------------------

FIGURA 1:
e-----0-----0-----0-----0---------
B---------------------------------
G-0h1---0h1---0h1---0h1-----------
D---------------------------------
A---------------------------------
E---------------------------------


F#m Bm Quiero tentar el abismo y a la muerte estafar
F#m Volvamos a cero, borremoslo todo
D E o FIGURA1 y festejemos si mañana me despierto sobrio y feliz
A F#m D E Por eso cancion llevame lejos, donde nadie se acuerde de mi,
C#m F#m D E Quiero ser el murmullo de alguna ciudad que no sepa quien soy.
F#m Bm Yo daría hasta mi sueño por ver la farsa fallar
F#m perdamos el centro, quememoslo todo
D E o FIGURA 1 y pediremos que mañana nadie venga a hacerme cumplir
A F#m D E Por eso cancion llevame lejos, donde nadie se acuerde de mi,
C#m F#m D E Quiero ser el murmullo de alguna ciudad que no sepa quien soy. INTRO
F#m Bm Cambio todo por el don que hace a las mujeres reir
F#m el mundo de ellas, me hunde en sus huellas
D E o FIGURA 1 y roguemos que mañana me convierta en otro infeliz ESTRIBILLO X2 Termina en F#m Nota: Los acordes de la primera parte van con arpegios si los tocan en las cuerdas de abajo les va a sonar muy parecidos la cancion.. Saludos!!
Este fichero es trabajo propio de su transcriptor y representa su interpretación personal de la canción. El material contenido en esta página es
para exclusivo uso privado, por lo que se prohibe su reproducción o retransmisión, así como su uso para fines comerciales.

© LaCuerda.net · Aviso Legal · Privacidad