Acordes de Guitarra » A »Azul Violeta » Tu Luz (Tab)

Tu Luz
Azul Violeta

Letras, Acordes y Tabs para Guitarra, Bajo y Ukulele

  • G
    Tres mas y once meses
             Em
    pa' llegar hasta el final
                   C
    de un milenio mas
                      G
    De cohabitar el mundo
    
    G-Em-C-G
    todo paso fugaz 
    frente de mi un siglo atras
    vivian a otro ritmo
    vivian a otro ritmo
    
    Solo + intro
    
    G-Em-C-G
    hoy busco la raiz
    para amarrar mi suenos 
    
  • B   =  Bend
    r   =  Release
    /   =  Slide up
    \   =  Slide down
    br  =  Vibrar
    
    Figura 1
    e|---------------------------------------------------|
    B|---0----0------0---0-------0----0-----0-----0------|
    G|--0-0--0-0----0-0-0-0-----0-0--0-0---0-0---0-0-----|
    D|---------------------------------------------------|
    A|-5----5---5--4---4----4--3----3---3--5----5-----5--|
    E|---------------------------------------------------|
    
    Riff 1
    e|-------10\9-9\8-8\7--|
    B|--7/8br--------------|
    G|---------------------|
    D|---------------------|
    A|---------------------|
    
  • Intro
    el bajeo es todo a contra menos
    el las dos primeras notas de cada compas
    echenle oido
    d----------------------------------------|
    g--------------2-2--2--2--2--------------|
    b---------------------------3-3--3--3--3-|
    E-3-3--3--3--3---------------------------|
    
    
    d--------------|
    g--------------|
    b--------------|X2
    E-3-3--3--3--3-|
    
    
    Tres mas y once meses...
    d----------------------------------------|
    g--------------2-2--2--2--2--------------|
    b---------------------------3-3--3--3--3-|
    E-3-3--3--3--3---------------------------|
    
                    todo paso fugaz...
    d----------------------------------------|
    g------------------------------2-2--2--2-|
    b--------------------------2-5-----------|
    E-3-3--3--3--3---3-3--3--3---------------|
    
    d------------------------------|
    g-2----------------------------|
    b---3-3--3--3--3---------------|
    E-----------------3-3--3--3--3-|
    
    Puente
    d----------------------------------------|
    g--------------2-2--2--2--2-----------
  • h= hammer on
    P= pull off
    /= slide hacia arriba
    \slide hacia abajo
    
    INTRO
    
    En el intro se toca la fig. 1 del verso x2 veces.
    
    VERSO FIG.1
    
    G-----------------------------------------------------
    D-----------------------------------------------------
    A--------------4-4--4--4--4-3-3--3--3--3--------------
    E-3-3--3--3--3---------------------------3-3--3--3--3-
    
    VERSO FIG. 2
    
    G-----------------------------------------------------------
    D-----------------------------------------------------------
    A-----------------------------------------------------------
    E-3-3--3--3/8-10-12-12--12--12p10-10-8-8--8--8--8-3-3--3--3-
    
    
    CORO
    
    G----------------------------------------------------------------
    D----------------------------------------------------------------
    A----------------------------------------------------------------
    E-0-2-4-5-5--5--5-4-5-5--5--5/6-6-8-8--8--8/10-10-12-12--12--12\-   
    
    G----------------------------------------------------------------
    D--------
  • +
    ¡Colabora con nosotros!
    Envíanos tu versión de esta canción

Letra de Tu Luz
Tres mas y once meses
pa' llegar hasta el final
de un milenio mas
De cohabitar el mundo
todo paso fugaz
frente de mi un siglo atras
vivian a otro ritmo
vivian a otro ritmo
hoy busco la raiz
para amarrar mi suenos
a un nuevo dios
que me permita ser feliz
Para corregir la ruta
no queremos otra guerra
queremos tu luz (solo)
Para disfrutar la vida
no queremos mas dinero
queremos amor [solo]
SOLO+ INTRO
dormi lo suficiente
es hora ya de despertar
para iniciar la busqueda
de una razon para vivir(solo)
contemplo la caida
que al final
me llevara al renacer
con sangre nueva
la conciencia no me basta
no me basta
la conciencia me confunde
me confunde
la conciencia no me basta
no me basta
la paciencia se me acaba
se me acaba
na na na na na na
na na na na na na
na na na na na na na




[Tu Luz chords][Tu Luz cifra]
© LaCuerda.net · aviso legal · privacidad · es · en · pt · contacto