Acordes de Guitarra » A »Axe bahia » Beso En La Boca (Tab)

Beso En La Boca
Axe bahia

Letras, Acordes y Tabs para Guitarra, Bajo y Ukulele

  • E|-------------------------
    B|-------------------------
    G|-5-5-5-5-1--------3-3-3-5
    D|----------3-6-6--6-6-----
    A|--------------------------
    E|-------------------------
    
    E|-------------------------
    B|-------------------------
    G|-5-5-5-5-1--------3------
    D|----------3-6-6--6-6-6-3-3
    A|--------------------------
    E|-------------------------
    
     beso en la boca es cosa del pasado
    E|-------------------------
    B|-------------------------
    G|-5-5-5-5-1--------3-3-3-5
    D|----------3-6-6--6-6-----
    A|--------------------------
    
  • +
    ¡Colabora con nosotros!
    Envíanos tu versión de esta canción

Letra de Beso En La Boca
beso en la boca es cosa del pasado
la moda ahora es enamorate a lado
beso en la boca es cosa del pasado
la moda ahora es enamorate a lado
las manos hacia arriba bate palmas sin parar
moviendo todo el cuerpo y comienzas a bajar
las manos hacia arriba bate palmas sin parar
moviendo todo el cuerpo y comienzas a bajar
bueno eso es todo esa podria tambien servir
de base pa' sacar toda la cancion completa
algunas recomendaciones o cualquiercosa favor
de escribirme a mi mail.
ah y un saludo pa' los cuzcos de los girasoles
18 1/2 sur de Delicias Chihuahua Mex.

Video de Beso En La Boca
[]




[Beso En La Boca chords][Beso En La Boca cifra]
© LaCuerda.net · aviso legal · privacidad · es · en · pt · contacto