Tablatura para Guitarra de los Auténticos Decadentes: Confundido
Conexión · Inscripción
Letras y Acordes
Pantalla Completa
Imprimir
Versión Texto
Añadir Favorito
Otras Versiones

Mostrar Diagramas
Desfile Automático
Manipular Acordes
Formato del Texto


Confundido(TAB)

los Auténticos Decadentes

calidad:
aude0544
AUTOR: los Auténticos Decadentes  corregir
ALBUM: Club Atlético Decadente (2006)
Enviado por Matias
v: Estirar
d: Deslizar
h: Ligado

Intro:
E|--------3-------5d7---0-------12--|-12h14-15-14-12----------14--12-----|
B|----------------------------------|----------------15-14-15---------12-|
G|----4d5---5d7---------4-------12--|------------------------------------|
D|----------------------------------|------------------------------------|
A|----------------------------------|------------------------------------|
E|----------------------------------|------------------------------------|

E|--------3-------5d7---0-------12--|-12h14-15-14-12----------14--12--|
B|----------------------------------|----------------15-14-15---------|
G|----4d5---5d7---------4-------12--|---------------------------------|
D|----------------------------------|---------------------------------|
A|----------------------------------|---------------------------------|
E|----------------------------------|---------------------------------|


Solo:

E|-----------------------------------12-10----15v-12----|
B|------8-10d12-12-10-8---8-----10d12------12-----------|
G|--7d9-----------------9---9---------------------------|
D|------------------------------------------------------|
A|------------------------------------------------------|
E|------------------------------------------------------|

E|--------------------------------------------------------------|
B|----8---8---8---8----------8-8-10d12-12------10--10-12d15-15--|
G|-7d9-7d9-7d9-7d9-------7d9--9------------9d11--11-------------|
D|------------------0-------------------------------------------|
A|---------------------7----------------------------------------|
E|-------------------0------------------------------------------|

Final:

E|--------3-------5d7---0-------12--|-12h14-15-14-12----------14--12-----|
B|----------------------------------|----------------15-14-15---------12-|
G|----4d5---5d7---------4-------12--|------------------------------------|
D|----------------------------------|------------------------------------|
A|----------------------------------|------------------------------------|
E|----------------------------------|------------------------------------|

E|--------3-------5d7---0-------12--|-14--15--14--12------17v---------|
B|----------------------------------|---------------------------------|
G|----4d5---5d7---------4-------12--|---------------------------------|
D|----------------------------------|---------------------------------|
A|----------------------------------|---------------------------------|
E|----------------------------------|---------------------------------|

cualquier duda me mandan un privado =) la saque completita!
 saludos desde Entre Rios Argentina
Este fichero es trabajo propio de su transcriptor y representa su interpretación personal de la canción. El material contenido en esta página es
para exclusivo uso privado, por lo que se prohibe su reproducción o retransmisión, así como su uso para fines comerciales.

© LaCuerda.net · Aviso Legal · Privacidad