Tablatura para Guitarra de los Auténticos Decadentes: Confundido
Conexión · Inscripción
Letras y Acordes
Pantalla Completa
Imprimir
Versión Texto
Añadir Favorito
Otras Versiones

Mostrar Diagramas
Desfile Automático
Manipular Acordes
Formato del Texto


Confundido(TAB)

los Auténticos Decadentes

calidad:
aude0542
AUTOR: los Auténticos Decadentes  corregir
ALBUM: Club Atlético Decadente (2006)
Enviado por Francisco
m: mantener la nota
v: Estirar
s: Deslizar
h: Ligado


Intro:
1)--------3-------3s7---0----------12--
2)-------------------------------------
3)----4s5---5s7---------4----------12--
4)-------------------------------------
5)-------------------------------------
6)-------------------------------------

Punteo:

2:45
1)-----------------------------------12-10----15v-12-----------
2)------8-10s12-12-10-8---8-----10s12------12------------------
3)--7h9-----------------9---9m---------------------------------
4)-------------------------------------------------------------
5)-------------------------------------------------------------
6)-------------------------------------------------------------
 (esto va rapido)
1)-------------------------------------------------------------
2)----8---8---8---8----------8-8-10s12-12------10--10-12s15-15-
3)-7s9-7s9-7s9-7s9-------7s9--9------------9s11--11------------
4)-----------------0-------------------------------------------
5)---------------------7---------------------------------------
6)------------------0------------------------------------------
Este fichero es trabajo propio de su transcriptor y representa su interpretación personal de la canción. El material contenido en esta página es
para exclusivo uso privado, por lo que se prohibe su reproducción o retransmisión, así como su uso para fines comerciales.

© LaCuerda.net · Aviso Legal · Privacidad