Acordes de Guitarra » A »Audio-Romance » Lo que siento (Tab)

Lo que siento
Audio-Romance

Letras, Acordes y Tabs para Guitarra, Bajo y Ukulele

  • |-------------|----------------|----------------0--|------0--1--0--3--|
    |-------------|----------0--1--|------1--3--1------|------------------|
    |-------0--2--|-------2--------|-------------------|----0-------------|
    |-------------|----0-----------|----2--------------|------------------| x3
    |----3--------|----------------|-0-----------------|-3----------------|
    |-1-----------|-3--------------|-------------------|------------------|
    
    |-------------|----------------|----------------0--|------0--1--0--3--|
    |-------------|----------0-----|------1--3--1------|------------------|
    |-------0--2--|-------2--------|-------------------|----0-------------|
    |-------------|----0-----------|----2--------------|------------------|
    |----3--------|----------------|-0-----------------|-3----------------|
    |-1-----------|-3--------------|-------------------|------------------|
    
    |-------------|----------------|-------------------|------0--1--0--3--|
    |-------------|----------0-----|------0--1--0---3--|------------------|
    |-------0--2--|-------2--------|-------------------|----0-------------|
    |-------------|----0-----------|----2--------------|------------------|
    |----3--------|----------------|-0-----------------|-3----------------|
    |-1-----------|-3--------------|-------------------|------------------|
    
  • +
    ¡Colabora con nosotros!
    Envíanos tu versión de esta canción

Letra de Lo que siento
Coro(s)
Esta es la guitarra que se escucha al en los dos versos.
V.1 (con piano)
No solo tengo miedo de decirte lo que siento.
Si tú supieras lo que me cuesta hablarte así.
Yo no pedí que llegaras a mi vida así,
ni tampoco que te quedaras solo porque si.
Ven y vamos a un lugar en donde puedas estar a solas conmigo
Y así poderte mostrar lo que en mis sueños he construido
Who oh Para ti.
Deja atrás todo lo que sufriste en el pasado.
Mejor vive el presente a mi lado será especial
Se que después de todo no te podre olvidar,
Y si lo sigues pensando me vas a alejar.
Ven y vamos a un lugar en donde puedas estar a solas conmigo
Y así poderte mostrar lo que en mis sueños he construido
... Para ti
Esta ultima parte de la guitarra se mantiene hasta el final
junto el “outro” de piano. Escuchen la canción para ver
el tiempo en que entra el piano al final.
Gtr.”Outro”
Piano. ”Outro”|
Aquí las ultimas notas del piano.
(la guitarra se mantiene igual hasta el final)
Gracias!!!
PD.Esta es mi primer transcripcion ;)

Video de Lo que siento
[]




[Lo que siento chords][Lo que siento cifra]
© LaCuerda.net · aviso legal · privacidad · es · en · pt · contacto
DINAMICO