Tablatura para Guitarra de Attaque 77: Resistiré
Conexión · Inscripción
Letras y Acordes
Pantalla Completa
Imprimir
Versión Texto
Añadir Favorito
Otras Versiones

Mostrar Diagramas
Desfile Automático
Manipular Acordes
Formato del Texto


Resistiré(TAB)

Attaque 77

calidad:
at771303
AUTOR: Campuzano, De Castro, Sanchez Llorente
ALBUM: Radio Insomnio (2003)
Enviado por El
Toda la cancion pasada a punteo


intro

e|---0-0-0-0-0-----0-0-1--|------------------0--|
B|-------------1-3--------|--3-3-3-3-3-0-1-3----|
G|------------------------|---------------------|
D|------------------------|---------------------|
A|------------------------|---------------------|
E|------------------------|---------------------|


e|---0-0-0-0-0-----0-0-1--|--0-0-0-0-0----------|
B|-------------1-3--------|------------0-3-1----|
G|------------------------|------------------2--|
D|------------------------|---------------------|
A|------------------------|---------------------|
E|------------------------|---------------------|


estribillo

1°parte


e|--5-5-5-5--5-5-5-6-5-3-1--|--3-3-3-3--3-3-3-5-3-1-0-0---0--|
B|--------------------------|---------------------------3----|
G|--------------------------|--------------------------------|
D|--------------------------|--------------------------------|
A|--------------------------|--------------------------------|
E|--------------------------|--------------------------------|


e|--0-0-0-1-1-1-1-1-1-3-1-0----|--0-0-0-0-0-0-0-0-0-1-0---------0--|
B|--------------------------3--|------------------------3-1-1-3----|
G|-----------------------------|-----------------------------------|
D|-----------------------------|-----------------------------------|
A|-----------------------------|-----------------------------------|
E|-----------------------------|-----------------------------------|

2°parte


e|--5-5-5-5--5-5-5-6-5-3-1--|--3-3-3-3--3-3-3-5-3-1-0-0---0--|
B|--------------------------|---------------------------3----|
G|--------------------------|--------------------------------|
D|--------------------------|--------------------------------|
A|--------------------------|--------------------------------|
E|--------------------------|--------------------------------|


e|--0-0-0-1-1-1-1-1-1-3-1-0----|--0-0-0-0--4-4-4-4--5--|
B|--------------------------3--|-----------------------|
G|-----------------------------|-----------------------|
D|-----------------------------|-----------------------|
A|-----------------------------|-----------------------|
E|-----------------------------|-----------------------|
Este fichero es trabajo propio de su transcriptor y representa su interpretación personal de la canción. El material contenido en esta página es
para exclusivo uso privado, por lo que se prohibe su reproducción o retransmisión, así como su uso para fines comerciales.


© LaCuerda.net · Aviso Legal · Privacidad