Acordes de Guitarra » A »Los Askis » Me Pregunto (Tab)

Me Pregunto
Los Askis

Letras, Notas, Punteos, Tablaturas y Acordes de Guitarra (Tabs & Chords)

  • Letra y Acordes
                  A
    ME PREGUNTO AMOR
                               Bm
    POR QUE LA VIDA HA DE SER ASI
                A
    TANTA FALSEDAD TANTO INTERES 
                 Bm
    ESO NO ES VIVIR
                     A
    YA NADIE SE ENTREGA AL AMOR
                Bm
    EN FORMA TOTAL
                     A
    YA NADIE SE ENTREGA SIN PENSAR
               Bm  
    LO QUE GANARA
               A
    AMAME MI AMOR 
    
    QUE TE AMO YO
    
  • Tab p/Bajo
    Este es un arreglo, y la verdad que si lo marcan bien 
    se oirá genial, y ahi les va...
    
    me pregunto amor...
       Bm            A              Bm
    3|-------------------2-------2---------------
    4|---------------0-4---0---4-----------------
    5|-2---0-2----2------------------2----0-2----
    6|---2------2-----------------------2--------
    
    esto se repite
    
    amame mi amor...
    
        Bm   A             Bm       
    1|----------------------------------------------------------
    2|---------------2--------------------------2---------------
    3|--2-1--0---0-4---0-1-2----0-2--2-1-0--0-4----0-1-2---0--2-
    4|-----------------------2---------------------------2------
    
    se repite durante toda esta parte y despues
    se repite la primera parte y listo.
  • +
    ¡Colabora con nosotros!
    Envíanos tu versión de esta canción

Letra de Me Pregunto
ME PREGUNTO AMOR
POR QUE LA VIDA HA DE SER ASI
TANTA FALSEDAD TANTO INTERES
ESO NO ES VIVIR
YA NADIE SE ENTREGA AL AMOR
EN FORMA TOTAL
YA NADIE SE ENTREGA SIN PENSAR
LO QUE GANARA
AMAME MI AMOR
QUE TE AMO YO
ABRE EL CORAZON A ESTA ILUSION
ENTREGATE SIN TRAMPAS AL AMOR
QUE LO MISMO HAGO YO [BIS]



© LaCuerda.net · Aviso Legal · Privacidad