Acordes de Guitarra » A »Los Askis » Amor sin primavera (Tab)

Amor sin primavera
Los Askis

Letras, Acordes y Tabs para Guitarra, Bajo y Ukulele

  • E|------11-10-8-11-10-8-11-8----------10-8--10-10-8--10---
    B|-8-8-8----------------------------------11-------11--11- 
    G|----------------------------10-10-10--------------------
    D|--------------------------------------------------------
    A|--------------------------------------------------------
    E|--------------------------------------------------------
    
    E|------8----8----8-8-8-8-11-8-----15-16-15---------------------
    B|-------11-9-11-9------------11-----------18-18-18------18-18--
    G|-8-8-8-------------------------------------------17--17-------
    D|---------------------------------------------------18---------
    A|--------------------------------------------------------------
    E|--------------------------------------------------------------
    
    E|---15-16-15-15-15-15-15--15-15----15---------------------------
    B|-18--------------------16-------16--16-15-15-15-15-15-15-15-15-
    G|---------------------------------------------------------------
    D|---------------------------------------------------------------
    A|---------------------------------------------------------------
    E|---------------------------------------------------------------
    
  • +
    ¡Colabora con nosotros!
    Envíanos tu versión de esta canción

Letra de Amor sin primavera
Esta es la historia tan triste que vivo
me desespero y me siento confundido
es que no tengo quien consuele
minutos este corazón.
Y me enloquezco, si es que no te tengo
me siento raro y através del tiempo
sigo esperando que regreses ami
mi tan querido amor.
Desconsolado y extraño tu pelo
tus rojos labios y esos ojazos negros
tu dulce forma de mirar, tu sonrisa
que me conquisto.
Desesperado veo correr el tiempo
que consolado junto a tus recuerdos
y mientras tanto yo sigo esperando
que llegues amor.
No hay primavera
desde a quel día que te fuiste
el sol no sale
ya se secaron las rosas
que tu plantaste y así mismo se ha secado
ya este corazón.
Que se muere por ti
si tu no estas amor
si no vuelves jamás
se muere mi corazón.
Desconsolado y extraño tu pelo
tus rojos labios y esos ojazos negros
tu dulce forma de mirar, tu sonrisa
que me conquisto.
Desesperado veo correr el tiempo
que consolado junto a tus recuerdos
y mientras tanto yo sigo esperando
que llegues amor.
No hay primavera
desde a quel día que te fuiste
el sol no sale
ya se secaron las rosas
que tu plantaste y así mismo se ha secado
ya este corazón.
Que se muere por ti
si tu no estas amor
si no vuelves jamás
se muere mi corazón.
No hay primavera
desde a quel día que te fuiste
el sol no sale
ya se secaron las rosas
que tu plantaste y así mismo se ha secado
ya este corazón.
Que se muere por ti
si tu no estas amor
si no vuelves jamás
se muere mi corazón.
Después del INTRO se toca esto al final de la canción
Dudas o comentarios favor de escribir a:
oscar_ole@hotmail.com




[Amor sin primavera chords][Amor sin primavera cifra]
© LaCuerda.net · aviso legal · privacidad · es · en · pt · contacto
DINAMICO