Acordes de Guitarra » A »Asfalto » Prisionera enmarcada (Tab)

Prisionera enmarcada
Asfalto

Letras, Acordes y Tabs para Guitarra, Bajo y Ukulele

  •  Cm                     A#  Cm                                                    
    ---3--------------------1---3---3------------------------------------------|
    ---4--------------------3---4------6--4--3---------------------------------|
    ---5---5--3-------------3---5---------------5------------------------------|
    ---5---------6--5--3----3---5----------------------------------------------|
    ---3--------------------1---3----------------------------------------------|
    ---------------------------------------------------------------------------|
    
    
    
    
    Cm                G#                 Fm                 Cm
       Otra   vez,     otra noche solo    sin querer dormir
    ---------3----------------------------------------------------------------3--|
    -------4---4-3-------------4------------------1--3---------------3--4--6-----|
    -----5-------  5-------5-------------------1-------3--5-------5--------------|
    ---5----------- 5----6-------6-----------3-----------------------------------|
    -3------------------6------------------3-------------------------------------|
    -------------------------------------1---------------------------------------|
    
    
  • +
    ¡Colabora con nosotros!
    Envíanos tu versión de esta canción

Letra de Prisionera enmarcada
Otra vez, otra noche solo sin querer dormir
(de los acordes estoy bastante seguro del arpegio no)
Aquel lugar parecia distinto habia magia alli
Observe aquellas paredes con curiosidad
Me detuve frente aquella foto tipica escolar
Me acerque y vi en tu mirada algo especial

y senti como me llamabas la tercera por la izquierda en pie

Te invite a salir del cuadro te abrazaste a mi
Destroce el enigma inerte de tu quietud
Eras papel ahora ya eres vida yo te la di
y senti como tu me amabas la tercera por la izquierda en pie
Uh uh uh
(distorsion)
Entra en mi mundo o dejame en el tuyo prisionera enmarcada


Eres real como nada ni nadie prisionera enmarcada


Ya ves llegue setenta años tarde pensaste en mi
Y senti como tu me amabas la tercera por la izquierda en pie

Eras papel ahora ya eres vida yo te la di
Ya ves llegue setenta años tarde la tercera por la izquierda en pie

Video de Prisionera enmarcada
[]




[Prisionera enmarcada chords][Prisionera enmarcada cifra]
© LaCuerda.net · aviso legal · privacidad · es · en · pt · contacto