Acordes de Guitarra » A »Ars Amandi » Ars Amandi (Tab)

Ars Amandi
Ars Amandi

Letras, Acordes y Tabs para Guitarra, Bajo y Ukulele

  • (00:00)
    
    e|-----------7-9-10-9-7-9-7----7--------------------------|
    B|----7-8-10----------------10---10-8-10-8-7-8-7---7------|
    G|--9--------------------------------------------9---9-7--|
    D|--------------------------------------------------------|
    A|--------------------------------------------------------|
    E|--------------------------------------------------------|
    
    
    (00:03)
    
    e|---------------------------|
    B|-------------------7-------|
    G|--9~--7---7-9~---7---7-9~--|
    D|--------9------------------|
    A|---------------------------|
    E|---------------------------|
    
    
    (00:07)
    
    e|-----------7-9-10-9-7-9-7----7--------------------------|
    B|----7-8-10----------------10---10-8-10-8-7-8-7---7------|
    G|--9--------------------------------------------9---9-7--|
    D|--------------------------------------------------------|
    A|--------------------------------------------------------|
    E|--------------------------------------------------------|
    
    
    (00:10)                       (00:14)
                           
  • +
    ¡Colabora con nosotros!
    Envíanos tu versión de esta canción



Video de Ars Amandi
[]




[Ars Amandi chords][Ars Amandi cifra]
© LaCuerda.net · aviso legal · privacidad · es · en · pt · contacto