Acordes de Guitarra » A »Armando Palomas » El amor descansa en un jacuzzi (Tab)

El amor descansa en un jacuzzi
Armando Palomas

Letras, Acordes y Tabs para Guitarra, Bajo y Ukulele

  •     LA                    MI
    el amor no es tan buena persona
        RE                    LA
    el amor es primo de una prima lejana
         LA              MI
    el amor no tiene corazones
        RE            LA
    el amor es un arma letal
        LA                  MI
    el amor es un cerdo que escupe
         RE                LA
    y vomita en tu pagina web
        LA                   MI
    el amor para quien me pregunte
           RE                LA
    tiene espinas en toda la piel
        LA                      MI
    se disfraza de un angel que tiene
         RE             LA
    una flecha y un arco con el
    
  • E|------------------------------------------------------------
    B|-8--10-12-12-12-12p10-8/10\8--8/10\8--8--8-8-10-12-10-12----
    G|------------------------------------------------------------
    D|------------------------------------------------------------
    A|------------------------------------------------------------
    E|------------------------------------------------------------
    
    
    
    
      ----------------10/12-10-12-10-------------------------------
      -8-10-12-12-12--------------------12-12-12/13-12-10-13-12----
      -------------------------------------------------------------
      -------------------------------------------------------------
      -------------------------------------------------------------
      -------------------------------------------------------------
    
    ------------------------------------------|
    ---10\8--8/10\8---------------------------|
    -------------------9-7--------------------|
    
  • +
    ¡Colabora con nosotros!
    Envíanos tu versión de esta canción

Letra de El amor descansa en un jacuzzi
el amor no es tan buena persona
el amor es primo de una prima lejana
el amor no tiene corazones
el amor es un arma letal
el amor es un cerdo que escupe
y vomita en tu pagina web
el amor para quien me pregunte
tiene espinas en toda la piel
se disfraza de un angel que tiene
una flecha y un arco con el
se la pasa cagando todo el dia encuerado
y te canta como luis miguel
va un re quinto que no se como se escriba aqui
pero va en la segunda cuerda en el 10 traste
primera cuerda y el el 12 y 14 de 2da y 14 de 1era
el amor es un puerco enfadado
y te puede pegar la enculez
el amor siempre te esta esperando
pa´morderte en el cuello otra vez
el amor que mas jode y destruye
es el de la primerita vez
pero hay uno al que el diablo le huye
es el que dura hasta la vejez
es el rey de la justa mentira
el amor solo quiere llevarte a la cama
es un hijo de puta que mira
te apendeja te absorbe da topes y mama
se vale de algunas canciones
para poder matar a alguien mas
y en las guitarras y diapasones
se convierte en cantante de bar
otra ves el requinto
de ahi la mano pegada a las cuerdas y tocando el la mi re la para
darle efecto blues en el orden de la letra y musica
sentado y casi a obscuras
tocando el piano
hasta el final
ATENTA INVITACION EL SABADO 26 DE SEPTIEMBRE DEL 2009 SE PRESENTA
ARMANDO PALOMAS EN IGUALA GUERRERO CON SUS INVITADOS PHITO TORRES
HECTOR ALIAS EL HACS Y HAYDN HERNANDES EN EL SALON LOS 2 POTRILLOS
INFORMES AL (01) (733) 332 62 72
O AL CORREO SUBENCARGAO_ELLUGAR@HOTMAIL.COM
LADALILINA@HOTMAIL.COM
VISITEN LAS PAGINAS http://palomas-en-iguala.blogspot.com
http://dalilinamusical.blogspot.com/




[El amor descansa en un jacuzzi chords][El amor descansa en un jacuzzi cifra]
© LaCuerda.net · aviso legal · privacidad · es · en · pt · contacto