Tablatura para Guitarra de Ariel Camacho y los Plebes del Rancho: Del Negociante
Conexión · Inscripción
Letras y Acordes
Pantalla Completa
Imprimir
Versión Texto
Añadir Favorito
Otras Versiones

Mostrar Diagramas
Desfile Automático
Manipular Acordes
Formato del Texto


Del Negociante(TAB)

Ariel Camacho y los Plebes del Rancho

calidad:
acpr0014
AUTOR: Ariel Camacho y los Plebes del Rancho  corregir
ALBUM: desconocido (2015)
Enviado por Alejandro
empieza en tono de : SOLm

E|--------------------------------
B|--------------------------------
G|------------------2-2---2-2/3---
D|----3-3/5-5----5-5-----5------5-
A|---5-
E|---

E|--------------------------------
B|------------------1-1---1-1/3---
G|----2-2/3-3----3-3-----3------3-
D|---5
A|--
E|-

E|--------------------------------
B|------3-3/4-4---4-4-4-4---4-3-1-
G|---3/5
D|---
A|--
E|-

E|-------------------------------
B|----1-1/3-3---3-3-3-3----1-----
G|---2-----------------------2-3-
D|---
A|--
E|-

E|-------------------------------
B|-------------------------------
G|----3-3/5-5---5-5-5-5----5-3-2-
D|---5
A|---
E|---

E|----------------------
B|----------------------
G|----2-2/3-2-----------
D|---3----------5-4-4/5-
A|---
E|---
Este fichero es trabajo propio de su transcriptor y representa su interpretación personal de la canción. El material contenido en esta página es
para exclusivo uso privado, por lo que se prohibe su reproducción o retransmisión, así como su uso para fines comerciales.

© LaCuerda.net · Aviso Legal · Privacidad