Acordes de Guitarra » A »Arbol » La nena monstruo (Tab)

La nena monstruo
Arbol

Letras, Acordes y Tabs para Guitarra, Bajo y Ukulele

  • Intro:      Bm
                Bm / Em / F#7
             
    Bm
    La nena monstruo se cayo del tobogán
    Dicen que fueron unos pibes del colegio
    Juegan a ver quien la tira mas alto
    y cuando cae nadie la quiere agarrar      
    
    (Base: E - F / E - F - Bb) (todas en 5ta)
    Corazón remendado
    Con Curitas tapizado
    
    Bm
    La nena monstruo dice que es verdad
    que en una nube un día vio cumplir su sueño
    Un conejito de nubes soñó
    y con el tiempo el viento se lo llevo
    
    Corazón remendado ..
    
  • Bm  G  Bm  F#7
    
    Bm
      La nena monstruo se cayo de un tobogan
    dice que fueron otros pibes del colegio
    juegan a ver quien la tira mas alto
    y cuando cae nadie la quiere agarrar.
    F5 F#5     F5  F#5  G5  F F#5       F5    F#5 G5
          Corazon remendado,     con curitas tapizado...
    
    Bm
      La nena monstruo dice que es verdad
    que en una nube un dia vio cumplir su sueño
    un conejito de nube sonio
    y con el tiempo el viento se lo llevo...
    F5 F#5     F5  F#5  G5  F F#5       F5    F#5 G5
          Corazon remendado,     con curitas tapizado...
    
    Bm  G  Bm  F#7  Bm  G  Bm  F#7
    
    
  • (INTRO)
    e|---2---2---2----------2---2---2--------|
    B|---3---3---3----------3---3---3--------|
    G|---4---4---4----------4---4---4--------| x2
    D|---------------------------------------|
    A|-2-------2----------2-------2----------|
    E|-----2------------------2--------------|
    
    e|-----2-2------------3-3------------2-2-------------------|
    B|---3-----3--------3-----3--------3-----3-----------------|
    G|-4---------4----4---------4----4---------4--3/5--3-2-3---|
    D|-------------------------------------------------------4-|
    A|---------------------------------------------------------|
    E|---------------------------------------------------------|
    
    
       LA NENA MONSTRUO SE CAYO DEL TOBOGAN...
    e|-2--2--2--2--2--2--2--2--2--2--2--2--2--2-|
    B|-3--3--3--3--3--3--3--3--3--3--3--3--3--3-|
    G|-4--4--4--4--4--4--4--4--4--4--4--4--4--4-|
    D|-4--4--4--4--4--4--4--4--4--4--4--4--4--4-|
    A|-2--2--2--2--2--2--2--2--2--2--2--2--2--2-| ACA PUEDEN METER PUNTEOS PERO
    E|-----------------------------------
  • +
    ¡Colabora con nosotros!
    Envíanos tu versión de esta canción

Letra de La nena monstruo
La nena monstruo se cayo del tobogán
Dicen que fueron unos pibes del colegio
Juegan a ver quien la tira mas alto
y cuando cae nadie la quiere agarrar
(Base: E - F / E - F - Bb) (todas en 5ta)
Corazón remendado
Con Curitas tapizado
La nena monstruo dice que es verdad
que en una nube un día vio cumplir su sueño
Un conejito de nubes soñó
y con el tiempo el viento se lo llevo
Corazón remendado ..
Lo que se espera llega lento y tarda mucho
su pobre cuore corazón no daba mas
Hasta aquel día en que vio a la nube conejo
se enamoro y de un golpe la quiso agarrar
Se le olvido que las nenas no vuelan
Lo fue a buscar pero nunca llego
Del trampolín al pavimento
Cabeceando el adoquín
Su corazón sufrió el intento
Cabeceando el adoquín
Siempre cabeceando el a do quín
Ella es un sueño que no me deja dormir
un pensamiento que me quema la cabeza
Pienso y la veo llorando despacio
y recordando lo que nunca paso
Se le olvido ...
Ahora se que la nube son sueños
Si las matas llueven tu corazón
Del trampolín ...
1ra y 5ta como base.
Bueno, este es el 1er tema de arbol ke pongo en la pagina,
a kienes les guste la banda y kieran mas temas escríbanme
y los voy bajando a medida ke me pidan.




[La nena monstruo chords][La nena monstruo cifra]
© LaCuerda.net · aviso legal · privacidad · es · en · pt · contacto
DINAMICO