Acordes de Guitarra » A »Aquelarre » Aves rapaces (Tab)

Aves rapaces
Aquelarre

Letras, Acordes y Tabs para Guitarra, Bajo y Ukulele

  •    Gm                                  Cm
    e|-----------------|-----------------|-----------------|-----------------|
    B|-----------------|-----------------|-----------------|-----------------|
    G|-------3---------|-------3---------|-----5-----------|-----5-----------|
    D|-----5-----5-3-5-|-----5-----5-3-5-|---5---3-----5---|---5---3-----5---|
    A|---5-------------|---5-------------|-3---------------|-3---------------|
    E|-3---------------|-3---------------|-----------------|-----------------|
    
    
    ESTROFA 1 (x2)
       Gm                                  Cm
    e|-----------------|-----------------|-----------------|-----------------|
    B|-----------------|-----------------|-----------------|-----------------|
    G|-------3---------|-------3---------|-----5-----------|-----5-----------|
    D|-----5-----5-3-5-|-----5-----5-3-5-|---5---3-----5---|---5---3-----5---|
    A|---5-------------|---5-------------|-3---------------|-3---------------|
    E|-3---------------|-3---------------|-----------------|-----------------|
    
    
    ESTRIBILLO 1
    
  • Se la dedico a mi viejo que es la que me influenció y me
    hizo escuchar esta banda que es exelente...Gracias Viejo!!
    
    Intro:
    
    G--------3-------------3-----------5----------5-----
    D------5---5-3-5-----5---5-3-5---5---3-5----5---3-5-
    A----5-------------5-----------3----------3---------
    E--3-------------3----------------------------------
    
    Verso: 'Cruzan las aguas...'
    
    G--------3-------------3-----------5----------5-----
    D------5---5-3-5-----5---5-3-5---5---3-5----5---3-5-
    A----5-------------5-----------3----------3---------
    E--3-------------3----------------------------------(x2)
    
    Estribillo: 'Las suaves...'
    
    G------------------------------------------
    D-------------1-1-------8------------------
    A-1-1-----1-1-----1-------6-666666-----3---
    E-----1-1-----------3-1------------3-3-----
    
    G--------3-------------3-----------5----------5-----
    D------5---5-3-5-----5---5-3-5---5---3-5----5---3-5-
    A----5-------------5-----------3----------3---------
    E--3-------------3----
  • +
    ¡Colabora con nosotros!
    Envíanos tu versión de esta canción

Letra de Aves rapaces
ESTROFA 1 (x2)
ESTRIBILLO 1
ESTROFA 2 (x2)...
ESTRIBILLO 2
5/8
7/8
PRE-SOLO
ESTRIBILLO 3
5/8
CODA (x2)
5/8 2/4




[Aves rapaces chords][Aves rapaces cifra]
© LaCuerda.net · aviso legal · privacidad · es · en · pt · contacto