Acordes de Guitarra » A »Los Apson » Fue en un café (Tab)

Fue en un café
Los Apson

Letras, Acordes y Tabs para Guitarra, Bajo y Ukulele

  • D                                        A7
    CUANDO YO RECUERDO QUE UNA VEZ LA ABANDONE
                                                     D
    YO ME PONGO A LLORAR Y NO SE QUE HACER PARA OLVIDAR
    D7        G            D
    OH YO NO SE, QUE VOY HACER
                             A7                D
    SI SU AUSENCIA ME MATA Y YO, YO QUIERO VOLVER
    
    D           Bm
    FUE EN UN CAFE,          DONDE YO LA DEJE
                 A
    FUE EN UN CAFE           DONDE LA ABANDONE
                Bm
    FUE EN UN CAFE           DONDE LA VI LLORAR
                 A
    FUE EN UN CAFE           Y NO QUISE ESCUCHAR
                Bm           D
    FUE EN UN CAFE EH EH     EEEH
    
    
  •        E                       B7
    Cuando yo recuerdo que una vez la abandoné
                                                  E       E7
    yo me pongo a llorar y no se qué hacer para olvidar
             A               E
    oh yo no sé, que voy a hacer
                          B7             E
    su ausencia me mata y yo no puedo volver
    
                 C#m
    (Fue en un café)       donde yo la dejé
                 B7
    (fue en un café)       donde la abandoné
                 C#m
    (fue en un café)       donde la vi llorar
                 B7
    (fue en un café)       y no quise escuchar
    
    (fue en un café)       eh eh eh
    
    
  •    F             3 ó 4 veces    
    4|-------------|----------|
    5|----0-3------|--0-3-----|
    6|-1-------0-1-|------0-1-|
    
    
            F                        
    Cuando yo recuerdo 
                     C
    que una vez la abandoné
              Gm 
    y hoy me pongo a llorar 
         C7                     F 
    y no sé qué hacer para olvidar..
    
    F7       Bb               F       
    oh yo no se, que voy a hacer, 
          C               C7 
    su ausencia me mata y yo
                 F    |----
    
  • Estuve revisando la tablatura del solo y del inicio
    y la verdad es que le hacen mucho al cuento
    Ahi les va la version original de esta excelente cancion de los apson
    
    Introduccion:
    D-------------------
    A----0-3-----0-3----
    E-1------0-1-----0-1   Esto se repite
    
    Y el solo de la cancion va asi:
    
    E--------------------------------------------
    B-----------1--------------------------------
    G---0-1-1/2---2-0----------------------------
    D-3---------------3---0-2-3-3-3-3-2-0-0--2-2-
    A--------------------------------------------
    E--------------------------------------------
    
    E--------------------------------------------
    B--------------------------------------------
    G-3h2h0-0---0-2-2/3-2--0-2/3-2--0-2/3-2-0----
    D------------------------------------------3-
    A--------------------------------------------
    E--------------------------------------------
    
    E---------------1---------
    B---------1-1/3---3-1-----
    G---------------------1-2-
    D-2-0---------------------
    A-----3-------
  • +
    ¡Colabora con nosotros!
    Envíanos tu versión de esta canción
  • Tutorial
    HD
    Como tocar Fue en un Cafe los apson
    11:51

Letra de Fue en un café
CUANDO YO RECUERDO QUE UNA VEZ LA ABANDONE
YO ME PONGO A LLORAR Y NO SE QUE HACER PARA OLVIDAR
OH YO NO SE, QUE VOY HACER
SI SU AUSENCIA ME MATA Y YO, YO QUIERO VOLVER
FUE EN UN CAFE, DONDE YO LA DEJE
FUE EN UN CAFE DONDE LA ABANDONE
FUE EN UN CAFE DONDE LA VI LLORAR
FUE EN UN CAFE Y NO QUISE ESCUCHAR
FUE EN UN CAFE EH EH EEEH
CUANDO YO RECUERDO QUE UNA VEZ ME ENGANOO
EL DOLOR ME HACE VER QUE AL DEJARLA YO TUVE RAZON
OH YO NO SE, QUE VOY HACER
SI SU AUSENCIA ME MATA Y YO, YO QUIERO VOLVER
FUE EN UN CAFE, DONDE YO LA DEJE
FUE EN UN CAFE, DONDE LA ABANDONE
FUE EN UN CAFE DONDE LA VI LLORAR
FUE EN UN CAFE Y NO QUISE ESCUCHAR
FUE EN UN CAFE EH EH EEEH.




[Fue en un café chords][Fue en un café cifra]
© LaCuerda.net · aviso legal · privacidad · es · en · pt · contacto