Acordes de Guitarra » A »Los Apson » El tren de Memphis (Tab)

El tren de Memphis
Los Apson

Letras, Acordes y Tabs para Guitarra, Bajo y Ukulele

  •    A                   D              A                  E
    E|----------------------------------------------------------|
    B|----------------------------------------------------------|
    G|----------------------------------------------------------|
    D|-2-4------------------------------------------------------|
    A|-----4-4--4-4---2-4-2--0-0---0---0-2-4--4-4-4-4--2-0---2--|
    E|----------------------------2-------------------------4---|
    
    (#2)
       A                  D                 A        E         A
    E|-----------------------------------------------------------|
    B|-----------------------------------------------------------|
    G|-----------------------------------------------------------|
    D|-2-4-------------------------------------------------------|
    A|-----4-4-4-4---2-4-2--0-0----0---0-2-4-4-4-4--2-2--4--2--0-|
    E|---------------------------2-------------------------------|
    
    (#3)
         D                A                         E
    E|------------------------------------------------------------|
    
  • +
    ¡Colabora con nosotros!
    Envíanos tu versión de esta canción

Letra de El tren de Memphis
(#2)
(#3)
(#4)
le siguen varias veces en ese orden; 1,2,3,4
terminando con el acorde LA como galopa un caballo así;
Si tienen dudas o comentarios buenos o malos escribanme




[El tren de Memphis chords][El tren de Memphis cifra]
© LaCuerda.net · aviso legal · privacidad · es · en · pt · contacto
DINAMICO