Acordes de Guitarra » A »Antonio Vega » Se dejaba llevar (Tab)

Se dejaba llevar
Antonio Vega

Letras, Acordes y Tabs para Guitarra, Bajo y Ukulele

  • e-----------------------------------------------
    B---------0---------0------------0-------0------
    G-----2----2-------2--2------2----2-----2--2----
    D----2--2----2----2----2----0--0---0---0----0---
    A-0--------------0---------2----------2---------
    E-----------------------------------------------
    
    
    e----------------------------------------------
    B--------0----------0-----------0--------0-----
    G----2----2-------2--2------2----2------2--2---
    D---2--2---2----2-----2----0--0----0---0----0--
    A-4-----------4-----------2-----------2--------
    E----------------------------------------------
    
    
       F#m7(maj7)          Ab6/9
    e-----------------------------------------
    B-----------------------------------------
    G-----2--------2----------4--------4------
    
  • +
    ¡Colabora con nosotros!
    Envíanos tu versión de esta canción

Letra de Se dejaba llevar
Azul............. líneas en el mar,
que profundo y sin domar acaricia una verdad.
Eh tú............ no lo pienses más,
o te largas de una vez o no vuelves nunca hacia atrás.
se repite el intro:
Se dejaba llevar,
se dejaba llevar por ti,
no esperaba jamás
y no espera si no es por ti.
Nunca la oyes hablar,
sólo habla contigo y nadie más,
nada puede sufrir,
que él no sepa solucionar.
Temor................ alcohol de quemar,
pon tus manos a volar o en tus ojos el terror
Azul.............vuelve a reflejar
y fundido con el sol reina un sueño con sonido a mar.
Se dejaba llevar,
se dejaba llevar por ti,
no esperaba jamás
y no espera si no es por ti.
Nunca la oyes hablar,
sólo habla contigo y nadie más,
nada puede sufrir,
que él no sepa solucionar.
ACORDES:




[Se dejaba llevar chords][Se dejaba llevar cifra]
© LaCuerda.net · aviso legal · privacidad · es · en · pt · contacto