Acordes de Guitarra » A »Los Antares » Mi compañera (Tab)

Mi compañera
Los Antares

Letras, Acordes y Tabs para Guitarra, Bajo y Ukulele

  • TONO:  E
    
    
                   E               C#7                  F#m
    E--------------------------------------------------------------------|
    A--------------------------------------------------------------------|
    D--------------------------------------------------------------------|
    G------3-----------2-----------10----------------11---11---11--------|
    B--2p0---0-2-4---0---0-------9----9------12-10-9----9----9----9-10---|
    E--------------0-------0-4-7--------10-9-----------------------------|
    
    
                    B7                          E
    E--------------------------------------------------------------------|
    A--------------------------------------------------------------------|
    D--------------------------------------------------------------------|
    G------3-------------------------------------------------------------|
    B--2p0---0-2-3-4-3-4-------------------------------------------------|
    E--------------------0-2-4-5-4-2-4-5-4-2-4-2-0-2-0-2-0-2-4-----------|
    
    
  • +
    ¡Colabora con nosotros!
    Envíanos tu versión de esta canción

Letra de Mi compañera
Ven mujer, regalame un momento
quiero hablarte de todo lo que siento
tu llegaste a mi vida sin pensarlo
te metiste hasta el fondo de mi alma
y ya ves me robaste la calma
y hoy me muero lentamente por tu amor
Quiero ver en tus ojazos negros
si por fin encontre mi compañera
compañera de mis penas y alegrias
mi negrita chiquitita y cariñosa
ven mujer regalame un momento
a tus pies quiero poner mi corazon
PD: Esta canción esta perfecta, el final del requinto se toca rápido la parte de los ligados.
Si tienes alguna duda, pregunta, sugerencia o comentario, envíala a mi E-mail
angelggomezp@yahoo.com

Video de Mi compañera
[]




[Mi compañera chords][Mi compañera cifra]
© LaCuerda.net · aviso legal · privacidad · es · en · pt · contacto