Tablatura para Guitarra de Angeles Negros: Despacito
Conexión · Inscripción
Letras y Acordes
Pantalla Completa
Imprimir
Versión Texto
Añadir Favorito
Otras Versiones

Mostrar Diagramas
Desfile Automático
Manipular Acordes
Formato del Texto


Despacito(TAB)

Angeles Negros

calidad:
aneg0322
AUTOR: José Alfredo Jiménez
ALBUM: 15 Melodias Inolvidables Con Sabor A Los Angeles Negros
Enviado por Raúl
Esta es la primera canción que mando, es una
excelente versión del clásico de José Alfredo.


Intro, se toca con pedal para dar el efecto de wah wah:

e------------------------------------------------------
B----5-----------------6-5-------5---------------------
G--5---7-5-4-5-7-----7-----7-5-7-----------------------
D------------------------------------------------------
A------------------------------------------------------
E------------------------------------------------------

e------------------------------------------------------
B----5-------------------------------------------------
G--5---7-5-4-5-7---7-5-4---4-5-5-4-7-5—565656565-------
D------------------------7-----------------------------
A------------------------------------------------------
E------------------------------------------------------

Solo:

e-------------------------------0-------0----------------
B-----0----------0-2--3-2-0-2-3---3-2-3---3-2-0--2-3-2-0-
G-1-2---1-2--1-2----1-----------------------------------2
D-----------4--------------------------------------------
A--------------------------------------------------------
E--------------------------------------------------------
Este fichero es trabajo propio de su transcriptor y representa su interpretación personal de la canción. El material contenido en esta página es
para exclusivo uso privado, por lo que se prohibe su reproducción o retransmisión, así como su uso para fines comerciales.

© LaCuerda.net · Aviso Legal · Privacidad