Acordes de Guitarra » A »Angel y Khriz » Me Enamoré (Tab)

Me Enamoré
Angel y Khriz

Letras, Acordes y Tabs para Guitarra, Bajo y Ukulele

  • E--7-7-5-7-3--7-7-5-7-2-------1-1s3-1s3------1-1s3-1s3--
    B-------------------------2-2------------2-2------------
    G-------------------------------------------------------
    D-------------------------------------------------------
    A-------------------------------------------------------
    E-------------------------------------------------------
    
    E--7-7-5-7-3--7-7-5-7-2-------1-1s3-1s3--3-1-0----------
    B-------------------------2-2-------------------------
    G-------------------------------------------------------
    D-------------------------------------------------------
    A-------------------------------------------------------
    E-------------------------------------------------------
             Am           F                      C
    Hola que tal, como estas? que te trae por aquí?
                     G                    Am
    Tanto que el me hablo de ti, y es verdad
         F                   C                    G
    Todo lo que me dijo es asi.., pero se le olvido decir..
                 Am                    F
    
  • E-------------------------------------|-------------------------------
    B--11-11-9-11-6--6-6-11-9-11-7--7h9p7-|-6-6-7-7h9-9--9-9-11-11/13-13--
    G-------------------------------------|-------------------------------
    D-------------------------------------|-------------------------------
    A-------------------------------------|-------------------------------
    E-------------------------------------|-------------------------------
    
    La ultima parte de la introducción si te das cuenta se escucha un poco
    mas agudo, estose debe a que otro doble la esta tocando encima
                                           *******************************
    E-------------------------------------|-9-9-11-11h13-13--8-8-9-9/11-11
    B-------------------------------------|-------------------------------
    G-------------------------------------|-------------------------------
    D-------------------------------------|-------------------------------
    A-------------------------------------|-------------------------------
    E-------------------------------------|-------------------------------
    
    Ahora los acordes se toca poniendo un traste a partir del primer traste
    los acordes se pueden tocar de 2 maneras
    
    
  • +
    ¡Colabora con nosotros!
    Envíanos tu versión de esta canción

Letra de Me Enamoré
Hola que tal, como estas? que te trae por aquí?
Tanto que el me hablo de ti, y es verdad
Todo lo que me dijo es asi.., pero se le olvido decir..
Que eres la mas hermosa, de todas las mujeres
Que eres casi perfecta, pero que no lo quieres
Que no sientes lo mismo y aun que herirlo no debes
Yo se que el es mi amigo
Por eso nunca te hable
Pero hoy tengo que decirte que..
Me enamore, sin querer, sin razon, sin motivos..
No se como fue, pero me enamore
Tal vez fue todo lo que me dijo.. tal vez no este bien
Pero me enamore sin querer, sin razon, sin motivos..
No se como fue, pero me enamore
Tal vez fue todo lo que me dijo.. tal vez no este bien
Pero me enamore..
Dime quien manda en el corazon, herirlo no es mi intención
Pero quien va a entender que su alegria es mi perdición
Sentire la presion y el efecto de fallarle a un amigo por mis defectos
Y a la vez conocer el amor perfecto para mi esto no es pretextos
Se atento no valgo nada, no se como no darle cara
Perdoneme amigo que respetaba
Hoy tu cara soy bestia...
Me enamore, sin querer, sin razon, sin motivos..
No se como fue, pero me enamore
Tal vez fue todo lo que me dijo.. tal vez no este bien
Pero me enamore sin querer, sin razon, sin motivos..
No se como fue, pero me enamore
Tal vez fue todo lo que me dijo.. tal vez no este bien
Pero me enamore..
Pa ser como por arte de magia
Me enamore de todo lo que el decia
De tu cara, tus ojos, tu boca.. tu piel
Y cada amanecer muy bella te veía
Y dime que puedo hacer, si eres la mujer que me eriza la piel
Se que es un error quererla a usted
Pero en mi lado la quiero tener y..
Fue creciendo poco a poco este amor tan fuerte que siento por ti
Las noches son tan amargas por que no te tengo aquí
Fue creciendo el sentimiento y sin darme cuenta deseándote a ti
Sin ti no puedo vivir..
Me enamore, sin querer, sin razon, sin motivos..
No se como fue, pero me enamore
Tal vez fue todo lo que me dijo.. tal vez no este bien
Pero me enamore sin querer, sin razon, sin motivos..
No se como fue, pero me enamore
Tal vez fue todo lo que me dijo.. tal vez no este bien
Pero me enamore..
ACORDES FINAL: Am-F-C-G-Am-F-C-G
PD: SE QUE HIZO FALTA UNAS PALABRAS QUE DICEN AL FINAL SI QUIEREN
AGREGUENLAS SON LOS MISMOS ACORDES PERO PARA MI ESTA SUENA GENIAL...
SUGERENCIAS...alex_25-15@hotmail.com...
es mi primera transcipcion asi q solo agradezcan

Video de Me Enamoré
[]




[Me Enamoré chords][Me Enamoré cifra]
© LaCuerda.net · aviso legal · privacidad · es · en · pt · contacto