Acordes de Guitarra » A »Andrés Cepeda » Faltarán (Tab)

Faltarán
Andrés Cepeda

Letras, Acordes y Tabs para Guitarra, Bajo y Ukulele

  •   C+X                     G
    Faltarán los amigos en la casa,
      Em7                       Asus7       A7
    faltará la comida en la despensa
     Dm                                          G
    y a veces faltarán la pasión y las palabras,
                           Em7                              Asus7           A7
    los detalles, las miradas, lo importante, las certezas..
    
       C+X                                    G
    Faltará encontrarle un buen nombre nuestros hijos
         Em7                    Asus7         A7
    faltarán los cuentos con príncipes y hadas
      C+X                                Em7
    y yo estaré tranquilo, seguiré tranquilo
        A7          Dm        G         C+X  - Em7 -A7- G.
    pues si estás comingo, ya no hará falta nada...
    
    
     C+X                                    G
    
  • e------------3--0h1--0---------------------------------
    B-----------------------1-----0h1--0-------------------
    G--------0-2---------------0----------2--0--2----------
    D----2-3---------------------------------------0h2--0--
    A------------------------------------------------------
    E------------------------------------------------------
    
          C+X                G
    Faltaran los amigos en la casa
    
         Em7                  Asus7
    Faltara la comida en la despensa
    
    A7             Dm                 G
      Y a veces faltaran la pasión las palabras
    
                   Em7
    Los detalles las miradas
    
                   Asus7          A7
    
  • Fadd9   31230x
    Gadd11  310023
    A7sus4  03020x
    
    Intro
    
    E|-----------3---1-0-----------------------|
    B|-------------------1---1-0---------------|
    G|------0-2------------0-----2-0-2---------|
    D|--2h3----------------------------2-0-----|
    A|-----------------------------------------|
    E|-----------------------------------------|
    
    
    
        FAdd9                Gadd11
    Faltarán los amigos en la casa,
         Em7                  A7sus4
    faltará la comida en la despensa
    A7            Dm                     Gadd11
    
  • Intro  Riff 1                                  FAdd9    XX3013
    
    Riff 1
           FAdd9         Em7       A7     Dm7                   G
    e--------------3-----0h1--0------------------------------------
    B----------------1-----------1--------0h1--0-------------------
    G------0-2--2-----2-------------0--0----------2--0--2----------
    D--2-3---3-3---3------------------2---0----------0-----0h2--0--
    A-------------------------------2------------------------------
    E--------------------0--------------------------------------3--
    
        Fadd9                 Gadd11    G          Gadd11   3X0013
    Faltarán, los amigos en la casa,                  Em7   022033
          Em7                  A7sus4   A7         A7sus4   002033
    y faltará la comida la despensa,                   A7   002023
                   Dm7                 Gadd11
    y a veces faltarán la pasión y las palabras,
          G           Em7
    los detalles las miradas,
                        A7sus4   A7
    
  • +
    ¡Colabora con nosotros!
    Envíanos tu versión de esta canción

Letra de Faltarán
Faltarán los amigos en la casa,
faltará la comida en la despensa
y a veces faltarán la pasión y las palabras,
los detalles, las miradas, lo importante, las certezas..
Faltará encontrarle un buen nombre nuestros hijos
faltarán los cuentos con príncipes y hadas
y yo estaré tranquilo, seguiré tranquilo
pues si estás comingo, ya no hará falta nada...
Faltarán los gritos y vendrá el aburrimiento,
ya no habrá más punta en mis lápices gastados.
Entre versos viejos poemas repetidos
con canciones y suspiros, reciclados...
Nos haremos viejos, forrados en piel,
llegará la muerte a besar nuestra almohada.
Nos faltará el aliento y yo estaré tranquilo,
pues si estás conmigo ya no hará falta nada...
Nos haremos viejos, forrados en piel,
llegará la muerte a besar nuestra almohada.
Nos faltará el aliento y yo estaré tranquilo,
pues si estás conmigo ya no hará falta nada..
Esa canción tan especial es para
la mujer mas hermosa
del planeta y sus alrededores te kiero mi sirenita




[Faltarán chords][Faltarán cifra]
© LaCuerda.net · aviso legal · privacidad · es · en · pt · contacto