Tablatura para Bajo de Andrés Calamaro: Mil Horas
Conexión · Inscripción
Letras y Acordes
Pantalla Completa
Imprimir
Versión Texto
Añadir Favorito
Otras Versiones

Mostrar Diagramas
Desfile Automático
Formato del Texto


Andrés Calamaro
Mil Horas(BAJ)
calidad:
acal2071
AUTOR: Andrés Calamaro  corregir
ALBUM: desconocido
Enviado por gustavo
TZV...

EL BAJO INICIA EN EL MINUTO 0:15
G----------------------------------------------|
D-----------------------------3-------3--------|
A-3-3-----3-3-----3-3-------5---5---5---5-6~---|
E-----3-5-----3-5-----3-5-3-------3------------|

0:32
G------------------------------------------|
D------------------------------------------|
A------1-3-3---345-5---5-6-6-5-x(5)-x(1)---|
E-3-33-------3-------5---------------------|

G----------------------------------|
D----------------------------------|
A------1-3-3---345-5---5-6-6-5-5---|
E-3-33-------3-------5-------------|

0:51
G----------------------------------------------|
D----------------------------------------------|
A-3-35-5------5-3-35-5------5-3-35-5-3-3-------|
E-------3-3-6---------3-3-6--------------3-5---|

1:06
G----------------------------------------------|
D-----------------------------3-------3--------|
A-3-3-----3-3-----3-3-------5---5---5---5-6~---|
E-----3-5-----3-5-----3-5-3-------3------------|

1:19
G------------------------------------------|
D------------------------------------------|
A-----1-3-35-56-6-5------1-3-35-56-6-5-----|
E-3-3----------------3-3---------------3---|

1:35
G---------------------------------|
D---------------------------------|
A---1-3-3---345-5---5-6-6-5-3-3---|
E-3-------3-------5---------------|

G----------------------------------|
D----------------------------------|
A------1-3-3---345-5---5-6-6-5-----|
E-3-33-------3-------5---------3---|

G-------------------------------------|
D-------------------------------------|
A---1-3-3---345-5---5-6-65-53-31-1----|
E-3-------3-------5---------------3---|

G----------------------------------|
D----------------------------------|
A------1-3-3---345-5---5-6-6-5-----|
E-3-33-------3-------5---------3---|

2:14
G---------------------------------|
D---------------------------------|
A---1-3-35-56-6-5------1-3-35-5---|
E-3----------------3-3------------|

2:24
G---------------------------------|
D---------------------------------|
A-6~-5~----3~-5~----6~-5~-3~------|
E-------3~-------3~----------3~---|
Este fichero es trabajo propio de su transcriptor y representa su interpretación personal de la canción. El material contenido en esta página es
para exclusivo uso privado, por lo que se prohibe su reproducción o retransmisión, así como su uso para fines comerciales.
© LaCuerda.net · Aviso Legal · Privacidad