Tablatura para Guitarra de Andrés Calamaro: Flaca
Conexión · Inscripción
Letras y Acordes
Pantalla Completa
Imprimir
Versión Texto
Añadir Favorito
Otras Versiones

Mostrar Diagramas
Desfile Automático
Manipular Acordes
Formato del Texto


Andrés Calamaro
Flaca(TAB)
calidad:
acal0233
AUTOR: Andrés Calamaro
ALBUM: Alta Suciedad (19??)
Enviado por Susanna
MELODÍA 1:
e-----------------------------------------------------------
G-3--0---0-3-4--0---0-4-5--0-------0-3-1-1----0-3--0--------
B-----2-0--------2-0--------2-0-2--------------------2-0-2--
D-----------------------------------------------------------
A-----------------------------------------------------------
E-----------------------------------------------------------


e-----------------------------------------------------------
G-0-3---0---------------------------------------------------
B----------2-0----------------------------------------------
D-----------------------------------------------------------
A-----------------------------------------------------------
E-----------------------------------------------------------

ESTRIBILLO:
G B7 Flaca, no me claves
Em C tus puñales, por la espalda
G D tan profundo, no me duelen
G D no me hacen mal.
G B7 Lejos, en el centro
Em C de la tierra, las raíces
G D del amor, donde estaban
G D quedarán.
G B7 Entre no me olvides me dejé nuestros abriles
Em C olvidados, en el fonde del placard
G D en el cuarto de invitados, eran tiempos dorados
G D un pasado mejor.
G B7 Aunque casi me equivoco y te digo poco a poco
Em C no me mientas, no me digas la verdad
G D no te quedes callada, no levantes la voz
G D ni me pidas perdón.
G B7 Aunque casi te confieso yo también he sido un
Em C perro compañero, un perro ideal
G D que aprendió a ladrar y a volver al hogar
G D para poder comer. ESTRIBILLO MELODÍA 1 (x2) MELODÍA 2 (x5): e-----------------------2-0-0--------------------3- G-----------------5-4-4--------0---0-3-1-1---0-3--- B------0-2-5--4-4----------------2---------2------- D-0-2-4-------------------------------------------- A-------------------------------------------------- E-------------------------------------------------- e-------2------------------------------------------ G-0---3---0---------------------------------------- B---2-------2-0------------------------------------ D-------------------------------------------------- A-------------------------------------------------- E--------------------------------------------------
Este fichero es trabajo propio de su transcriptor y representa su interpretación personal de la canción. El material contenido en esta página es
para exclusivo uso privado, por lo que se prohibe su reproducción o retransmisión, así como su uso para fines comerciales.
© LaCuerda.net · Aviso Legal · Privacidad