Acordes de Guitarra » A »Ana Torroja » A Contratiempo (Tab)

A Contratiempo
Ana Torroja

Letras, Acordes y Tabs para Guitarra, Bajo y Ukulele

  • E -------3--0----------------3--2----0----------3--0----- 
    B ----3-------------------3------------3--1--3------------
    G ----------------------------------------------------------
    D ----------------------------------------------------------
    A -3---------------3---------------------------------------
    E ---------------------3------------------------------------
    
    
    C - G
                           
    
    C                G7                    Am           Em
    Vaya por Dios que tonta estoy se me ha vuelto a escapar
    F                G 
    el alma por la puerta. 
    C                G7                    Am       Em
    Podría ser que he vuelto a ver quizá fue sin querer 
    F                   G
    aquellas cartas viejas.
    
    
  •    F   Bb   F      C  F       Bb  F  C
    e|--------------------------------1--0-|
    B|-----6---------6-5---------6----1--1-|
    G|--5-7-7------5------------5-7---2--0-|
    D|----------5-7-------7-5-7-------3--2-|
    A|--------------------------------3--3-|
    E|--------------------------------1--x-|
    
    F-Bb-F-C x2
    
    F                   Bb
    Vaya por dios, que tonta estoy,
                    F   C
    se me ha vuelto a escapar,
    F    Bb       G7     Bb
    el alma por la puerta.
    
    Podría ser que he vuelto a ver,
    quizá fue sin querer, aquéllas cartas viejas.
    
    
  • +
    ¡Colabora con nosotros!
    Envíanos tu versión de esta canción

Letra de A Contratiempo
Vaya por Dios que tonta estoy se me ha vuelto a escapar
el alma por la puerta.
Podría ser que he vuelto a ver quizá fue sin querer
aquellas cartas viejas.
Vaya por Dios que tonta estoy se me ha vuelto a llenar
el corazón de lluvia.
Podría ser que he vuelto a ver quizá fue sin querer
aquellas fotos tuyas.
Y cae la tarde y dan ganas de llamarte.
La soledad de una estación de madrugada
un beso al viento una canción desesperada.
No se si fue ayer una buena idea el decir adiós
y es que uno no es bastante.
Ir a mirar desde el balcón como se esconde el sol
ya no es lo mismo que antes.
Por mucho que intento no recuerdo tus defectos.
La soledad es una estación de madrugada
un beso al viento una canción a contratiempo.
Hemos quedado hoy a las diez vuelve a latir mi corazón
como la primera vez y a contra luz me rindo al temblor
de tus deseos y la humedad impone su ley a contratiempo.
G ( seguido de el fin ya que asi se termina la canción con G )
Fin:
“la-la-la-la”, en la de C-Am-F-G solo se rasguea una vez
por acorde.
Esta es la primer canción que saco solo espero no tenga errores
pero para cualquier duda o comentario mandame un e-mail.




[A Contratiempo chords][A Contratiempo cifra]
© LaCuerda.net · aviso legal · privacidad · es · en · pt · contacto