Acordes de Guitarra » A »Ana Prada » Tentempie (Tab)

Tentempie
Ana Prada

Letras, Acordes y Tabs para Guitarra, Bajo y Ukulele

  • Intro: D F#m Em A A7 Em Gm D A
    
       D                           F#m
    Hace un ratito que esta por venir
                     Em
    Ya me estoy por ir
                 A
    Ya casi me quedo
         A7                 Em
    Me muero por oírte sonreír
                  Gm
    No te quiero ver
                 D      A
    A veces me pierdo.
    
    Peleamos todo el tiempo por mostrar
    Quien se quiere más
    Quien extraña menos
    Lo bueno de tenerte siempre ahí
    Es como sentir
    
  • e--------------------------------------------------------------------|
    B-------3----3--2----------------------------------------------------|
    G------------------4--2------------2---------------------------------|
    D--2/4--------------------5--4--5------5--4--2--4--5-----5--4--5---2-|
    A--------------------------------------------------------------------|
    E--------------------------------------------------------------------|
    
    
    e-----3--2----2--3--2-----2--3----3--2-----2--3----5--7--5--7--2-----|
    B-----------5----------5----------------5----------------------------|
    G-2/4----------------------------------------------------------------|
    D--------------------------------------------------------------------|
    A--------------------------------------------------------------------|
    E--------------------------------------------------------------------|
    
       D                           F#m
    Hace un ratito que está por venir
                     Em
    Ya me estoy por ir
                 A
    
  • +
    ¡Colabora con nosotros!
    Envíanos tu versión de esta canción

Letra de Tentempie
Hace un ratito que esta por venir
Ya me estoy por ir
Ya casi me quedo
Me muero por oírte sonreír
No te quiero ver
A veces me pierdo.
Peleamos todo el tiempo por mostrar
Quien se quiere más
Quien extraña menos
Lo bueno de tenerte siempre ahí
Es como sentir
Que te me estas yendo
ESTRBILLO
Nada más puedo ser
El vaivén entre pasión y sacrificio
Suelo andar ya me ves
Jugando al tentempié en el precipicio
Sos todo lo que yo siempre soñé
Ya me desperté
Y sigo dormida
Todo el futuro depende de vos
Puedo con el día
ESTRIBILLO
Nada más puedo ser
El vaivén entre pasión y sacrificio
Suelo andar ya me ves
Jugando al tentempié en el precipicio
Suelo andar ya me ves
Jugando entre pasión y sacrificio
Balancearse, dudar
Sin caer y sin poder cambiar de sitio




[Tentempie chords][Tentempie cifra]
© LaCuerda.net · aviso legal · privacidad · es · en · pt · contacto
DINAMICO