Acordes de Guitarra » A »Amen » Una Cancion Por Dios (Tab)

Una Cancion Por Dios
Amen

Letras, Acordes y Tabs para Guitarra, Bajo y Ukulele

  •   C  D  E  F  G   A  B 
      DO RE MI FA SOL LA SI 
    
      A2sus : |---
              |---
              |-2-
              |-2-
              |---
              |---
    
    
    intro: A2sus     A   (x4)
    
    A2sus  A  A2sus   A Bm
    el amor es la razon de todo ser
    E                                      A2sus  A
    aunque al principio sea dificil de entender
    A2sus      A A2sus   A        Bm 
    eres para mi mucho mas que una cancion 
    E                                             A2sus  A
    
  • Intro: A 
    
    A                      Bm 
    El amor es la razon de todo ser 
    E                                        A            
    aunque al principio sea dificil de entender
    A                            Bm
    eres para mi mucho mas que una cancion 
    E                                              A
    eres mas que un sueño del que no quiero despertar
    
    
       D                       A
    Y creo creo que es mejor amar 
       D                          Bm E
    y pienso que no nos debemos matar 
    
    
    A                       Bm
    paz y amor es el mensaje que hay que dar
    
  •             Asus2       A           Bm          E          D
              \x=====/   \x=====/    \x=====/    \======/   \xx====/
               ||||||     ||||||      ||||||      |||o||     ||||||
               ||oo||     ||ooo|      |ooooo      |oo|||     |||o|o
               ||||||     ||||||      ||||o|      ||||||     ||||o|
               ||||||     ||||||      |||oo|      ||||||     ||||||
    
                                 Explicacion de la TABLATURA
                                =============================
    
         h=  hammer on         p=   pull-off          /=   slide up
         \=  slide down        ^=   bend full        b=   bend half
        br=  bend´n release
    
    INTRO:   Asus2-A  Asus2-A  (x2)
    
    
    Asus2 A  Asus2     A      Bm
    El  amor   es la razon de todo ser
    E                                         Asus2-A  Asus2-A
    
  • E||--------||--------||--------||--------||--------||--------||--------||
    B||--------||--------||--------||--------||--------||--------||--------||
    G||*------*||*------*||*------*||*------*||*------*||*------*||*------*||
    D||*------*||*------*||*------*||*------*||*------*||*------*||*------*||
    A||--------||--------||--------||--------||--------||--------||--------||
    E||--------||--------||--------||--------||--------||--------||--------||
    
    
                                D   D   D  D  D D    D
    --------||------|------||---2---2-2-2--2--2-2--3-2----||
    --------||------|------||---3---3-3-3--3--3-3--3-3----||
    *------*||------|------||*--2---2-2-2--2--2-2--2-2---*||
    *------*||------|------||*--0---0-0-0--0--0-0--0-0---*||
    --------||------|------||-----------------------------||
    --------||------|------||-----------------------------||
    
    
       LA plalalaAparAiA  A  A       D   D   D  D  D D    D
    ---0---0-0-0-0---0-0--0--0---||--2---2-3-2--2--2-2--3-2---|
    ---0---0-0-0-2---2-2--2--2---||--3---3-3-3--3--3-3--3-3---|
    
  • *Recomendaciones :
     ---------------
    -El bajo de esta cancion solo he sacado el verso y el coro la Parte del
     solo el bajo creo que hace el mismo punteo del verso pero todavia no 
     he sacado el solo pruebenlo y comprobaran que esta 100% correcto 
     ahí les va
    
    ===============================
    -El bajo en el Intro todavia no toca y entra en la parte del coro y 
     es asi:
    
    G.---------------------------||
    D.---------------------------||
    A.-55-5-------55-5------77-7-||
    E.------55-5-------77-7------||
    
    -El bajo en el segundo verso sigue así las notas:
    
    G.---------------------------------||
    D.---------------------------------||
    A.------------22-2-22-2------------||
    E.-55-5-55-5------------00-0-00-0--||
    
    -En la parte donde ya va acabar la canciópn el bajo la para y termina en 
     LA:
                        S 
    G.------------------||-------------------||
    D.------------------||-------------------||
    A.------------------||-55-5--------------||   S=silencio
    E.-55-5-55-5--77-7
  • +
    ¡Colabora con nosotros!
    Envíanos tu versión de esta canción
  • Tutorial
    HD
    Una canción por Dios - AMEN (solos)
    2:07
  • Tutorial
    HD
    Una canción por Dios - AMEN (rasgueos)
    4:20

Letra de Una Cancion Por Dios
|-2-
|-2-
el amor es la razon de todo ser
aunque al principio sea dificil de entender
eres para mi mucho mas que una cancion
eres mas que el sueño del que no quiero despertar

y creo , creo que es mejor amar
y pienso que no nos debemos matar oh no !!
paz y amor es el mensaje que hay que dar
aunque unos quedan y otros se van , y es que es asi
jesus tu solo sabes ese porque
y aunque poco yo se mucho tengo que dar ohh !! yeahh !
decir perdoname si alguna ves falle
pues si sabia lo que hacia en realidad
si yo solo te pido un tiempo maaaass
que nunca me dejes morir en ti
aameeen
temitas , saludos pa mi primo el negro loco 'bon jovi'




[Una Cancion Por Dios chords][Una Cancion Por Dios cifra]
© LaCuerda.net · aviso legal · privacidad · es · en · pt · contacto