Acordes de Guitarra » A »Amen » Milagros (Tab)

Milagros
Amen

Letras, Acordes y Tabs para Guitarra, Bajo y Ukulele

  • G                D
    soy de todos un amigo
             C
    soy de nadie un enemigo
    Am              D
    las cosa solo dios las cambiara
    G                 D             C
    y aunque soy inocente de este mundo soy conciente
    Am                D              G
    en la vida hay luchar para encontrar
    
    estribillo:
    
    C          D         G            C
    y asi la vida compañera y gran amiga
    Am          D            G
    las cosas solo dios las cambiara
    C               D              G            C
    pero no de enojarme por el trato que ha de darme
    Am                    G            G
    
  • C            D               G            C
    Soy de todos un amigo soy de nadie un enemigo
            Am           D         G
    Y las cosas solo dios las cambiara
    C            D              G            C
    y aunque soy inocente de este mundo soy conciente
            Am           D                 G
    Y en la vida hay que luchar para encontrar
    
    Pre coro:
    
    C          D         G            C
    Y así la vida compañera y gran amiga
    Am                D         G
    Nos empuja hasta llegar a su final [Bis]
    
    C               D              G            C
    Pero no debo enojarme por el trato que han de darme
    Am        D            G
    Pues todo rotara y cambiara
    
  •      C
     e-----3-----3---
     b-----3------3--
     g-----0-------0-
     a-----0--------0
     d-----2---------
     e-----3---------
     Soy de todos un amigo,soy de nadie un enemigo
       C             D             G            C          C/Em
     e-------3-----------2-----------3------------3-------------------
     b-----1---1-------3---3-------3---3--------1---1-----------------
     g---2------2----2------2---0-------0-----2-------2--------0----0-
     a------------0------------------------------------0-----0----0---
     d-3-----------------------------------3--------------3----2------
     e-----------------------3----------------------------------------
     Las cosas solo dios las cambiaraaaaaaaaaa
     Am               D             G
     e---------1-----------2------------3---
     b-------2---2-------3--3---------3--3--
     g-----2------2----2-----2------0-----0-
    
  • bueno esta es mi primera transcripción de amen.... de la canción
    milagros ojala les sea útil.....
    
    AMEN - Milagros
    
    VERSOS:
    
    G------------------------------------------------------
    D------------------------------------------------------
    A--------------101010----------------------10-10101010-
    E-888-10-1010----------8--888--555--101010-------------
    
    CORO
    
    G------------------------------------------------------
    D------------------------------------------------------
    A--------------101010----------------------10-10101010-
    E-888-10-1010----------8--888--555--101010-------------
    
    
    
    Todo es igual en toda la canción..... un saludo para ventanilla
    el barrio de la ex zona comercial...... para todos mis brother....
    
    Cualquier cosa  ahí esta mi correo jean_navarro_1995@hotmail.com
  • +
    ¡Colabora con nosotros!
    Envíanos tu versión de esta canción

Letra de Milagros
soy de todos un amigo
soy de nadie un enemigo
las cosa solo dios las cambiara
y aunque soy inocente de este mundo soy conciente
en la vida hay luchar para encontrar
estribillo:
y asi la vida compañera y gran amiga
las cosas solo dios las cambiara
pero no de enojarme por el trato que ha de darme
en la vida hay que luchar para encontrar.
y esa luz tan linda compañera y gran amiga
en la vida hay luchar para encontrar......
ya ustedes escuchenla y terminenlaes una buena cancion
esta cancion la saque con mi brother marlon cualquier
duda no duden en pasarme la vos chauuuu....




[Milagros chords][Milagros cifra]
© LaCuerda.net · aviso legal · privacidad · es · en · pt · contacto