Acordes de Guitarra » A »Amar Azul » Me enamoré (Tab)

Me enamoré
Amar Azul

Letras, Acordes y Tabs para Guitarra, Bajo y Ukulele

  • INTRO: REm-DO-REm x4
    
    REm
    Me fui pal baile, me emborraché
                              FA
    Miré a una chica y me enamoré
              DO                              RE
    Era tan bella, era tan bella la quería comer
    
    De minifalda usaba un top
    Y una tanguita que se le vio
    Esa colita, esa colita que me enloqueció
    
    Punteo: Rem-Do-Rem
    
    Estribillo x2:
    
    REm        DO
    YO ME ENAMORE
                          REm
    
  •     Dm
     e|------------------------------------|
     b|------------------------------------|
     g|----7-----7--10--10--9--9--10--9--7-|
     d|-7-----7----------------------------|
     a|------------------------------------|
     E|------------------------------------|
    
    
     e|------------------------------------|
     b|------------------------------------|
     g|----7-----7--10--10--9--9--10--9--5-|
     d|-7-----7----------------------------|
     a|------------------------------------|
     E|------------------------------------|
    
        C
     e|---------------------------------|
     b|---------------------------------|
     g|----5-----5--9--9--7--7--9--7--5-|
    
  • primer punteo:
    
    Dm
    la RE la RE FA FA FA MI FA MI RE
                                     C
    la RE la RE FA FA FA, SOL FA MI DO
    
    sol DO sol DO MI MI MI RE MI RE DO
                                       Dm
    sol DO sol DO MI MI MI, SOL FA MI RE
    
    LA FA LA RE.
    
    
    
    segundo punteo:
    
    
    
    Dm
    la RE la RE FA FA FA MI FA MI RE
                                     C
    la RE la RE FA FA FA, SOL FA MI DO
    
    sol DO sol DO MI MI MI RE MI RE DO
                                       Dm
    sol DO sol DO MI MI MI, SOL FA MI RE
    
    LA FA LA RE, FA LA.
    
    
    
    
    
    BUENO HOLA GENTE AQUÍ LES DEJO EL TEMA PARA ALGUNOS
    CHICOS QUE ME PIDIERON EL TEMA DE AMAR AZUL
    RECUERDEN QUE LAS NOTAS QUE ESTAN CON MAYUSCULAS SIGNIFICA
    UNA OCTAVA MAS ARRIBA BUENO ESPERO QUE LES SALGA CUALQUIER
    COSA ESCRIBANME A WWW.METROFLOG.COM/BAE__YO
  • +
    ¡Colabora con nosotros!
    Envíanos tu versión de esta canción

Letra de Me enamoré
Me fui pal baile, me emborraché
Miré a una chica y me enamoré
Era tan bella, era tan bella la quería comer
De minifalda usaba un top
Y una tanguita que se le vio
Esa colita, esa colita que me enloqueció
Punteo: Rem-Do-Rem
Estribillo x2:
YO ME ENAMORE
DE ESA CHICA, ME ENAMORÉ
:::::aguante amar azul::::::de aca comienza la cumbia de lescano::::::
::::::::alvear:::::::santa fe:::::.nec_13_7@hotmail.com::::::::




[Me enamoré chords][Me enamoré cifra]
© LaCuerda.net · aviso legal · privacidad · es · en · pt · contacto