Acordes de Guitarra » A »Alvaro Ruiz » Ritmo y Compás (Tab)

Ritmo y Compás
Alvaro Ruiz

Letras, Acordes y Tabs para Guitarra, Bajo y Ukulele

  • E|------------0-----------------0-------------------------3--|
    B|--1---------1-------------------------1---------1-------3--|
    G|--2---------1-------------------------2---------1-------2--|
    D|--2--2/3p0-----3p0--2--2/3p0-----3/5--2--2/3p0--2--3p2--2--|
    A|--------------------2---------2-------------------------3--|
    E|--1---------1-------0---------0-------1---------1----------|
    
    
    E|------------0-----------------0-------------------------3--6--3|
    B|--1---------1-------------------------1---------1-------3--6--3|
    G|--2---------1-------------------------2---------1-------2--5--2|
    D|--2--2/3p0-----3p0--2--2/3p0-----3/5--2--2/3p0--2--3p2--2--5--2|
    A|--------------------2---------2-------------------------3--6--3|
    E|--1---------1-------0---------0-------1---------1--------------|
    
    
    Fmaj7                                     C6add9
    Que pronto se nos hecha siempre encima la noche
    Fmaj7               FmM7             C6add9
    Las ganas de ser contigo, ritmo y compás
    
  • +
    ¡Colabora con nosotros!
    Envíanos tu versión de esta canción

Letra de Ritmo y Compás
Que pronto se nos hecha siempre encima la noche
Las ganas de ser contigo, ritmo y compás
Buscando la via de escape, como dos gatos
que corren por el tejado, sin mirar atrás
Es algo así como verla reír de reojo
y hechar a un lado los despojos que me impiden caminar
es algo así como sentirla respirando
libre como cuando canto, libre como oírla cantar
Que sabe la gente de lo que el alma valore
cuidando de que yo no me enamore y de que tu
no te vuelvas a escapar, no quiero que el destino
me prive de tus encantos ya sabes que nunca fuí del todo un santo
que se me ponen las orejas coloradas
Que pronto se nos hecha siempre encima la noche
Las ganas de ser contigo, ritmo y compás..
Acordes




[Ritmo y Compás chords][Ritmo y Compás cifra]
© LaCuerda.net · aviso legal · privacidad · es · en · pt · contacto
DINAMICO