Acordes de Guitarra » A »Alquimia » Vulnerable (Tab)

Vulnerable
Alquimia

Letras, Acordes y Tabs para Guitarra, Bajo y Ukulele

  • E-1-0h1----1-0h1----------------------
    B-------3--------1--1-1----1---1-1-3--
    G------------------------2---2-------- x2
    D-------------------------------------
    A-------------------------------------
    E-------------------------------------
    
    E-------------------------------------
    B-------------------------------------
    G-----------------------------10h12--- x2
    D--7---7-7-7-7-7------7-7-7-----------
    A--5---5-8-5-8-5-5-5--5-8-5-----------
    E-------------------------------------
    
    estrofa:
    Dm                                 C
    ¿Como podre evitar vagar por estos días amargos?
    Dm
    ¿Como podre abrazarte en cada sueño?.
    C
    
  • +
    ¡Colabora con nosotros!
    Envíanos tu versión de esta canción

Letra de Vulnerable
estrofa:
¿Como podre evitar vagar por estos días amargos?
¿Como podre abrazarte en cada sueño?.
Aunque no sea real.
PRE CORO
Desde el fondo del mar
a la más alta montaña,
desde el primer rayo del Sol
a la noche estrellada.
Desperté en la oscuridad,
en ausencia de tu luz.
y entre lágrimas grité tu nombre.
Si pudiera volar al lugar donde estas tú,
no quisiera sentirme otra vez tan distante...
¡Tan vulnerable!
ESTROFA
¿Como podre sentirte aunque sé que ya te has marchado?
¿Como podrás perdonarme por no ser capaz de ser feliz?
PRE CORO
Desde las sombras de mi ser
hasta la luz de tu mirada,
desde estos versos que ya sé
que no sirven de nada.
Desperté en la oscuridad,
en ausencia de tu luz.
y entre lágrimas grité tu nombre.
Si pudiera volar al lugar donde estas tú,
no quisiera sentirme otra vez tan distante...
Tan vulnerable
tan distante...
TAN DISTANTE!!!!!
(SE ACOMPAÑA CON LOS ACORDES DEL CORO SIBUDO UN TONO)
Desperté en la oscuridad,
en ausencia de tu luz.
y entre lágrimas grité tu nombre.
Si pudiera volar al lugar donde estas tú,
no quisiera sentirme otra vez tan distante...
¡Tan vulnerable!




[Vulnerable chords][Vulnerable cifra]
© LaCuerda.net · aviso legal · privacidad · es · en · pt · contacto
DINAMICO