Acordes de Guitarra » A »Allison » Memorama (Tab)

Memorama
Allison

Letras, Acordes y Tabs para Guitarra, Bajo y Ukulele

  • C#                     A#m
    Puede Ser Que Ya No Te Vuelva A Ver
                  F#
    Y Que No Sepa Mas
                                  G#
    No Sepa Mas De Lo Que Pasa De Ti
    
    Y De Mí
    
    C#                  A#m
    No, No Puedo Sacarte No
                               F#
    De Mi Mente De Todo Lo Que Me Recuerda Tu Cara
                    G#
    No Quiero Pensar Ir A Buscarte A Tu Casa
    
    C#
    Siempre Estarás Muy Muy Dentro De Mí
          F#
    Y Te Quiero Sacar Para No Estar Así,
    
  • Db
    Puedes ser
         Fm       Bbm
    que ya no te vuelva a ver
                   Gb
    y que no sepa mas
                                   Ab
    nos sepa mas de lo que pasa de ti y de mi.
    
    Db           Fm       Bbm
    No, no puedo sacarte no de mi mente
                   Gb
    de todo lo que me recuerda tu cara
                 Ab
    no quiero pensar ir a buscarte a tu casa.
    
      Db
    Siempre estaras muy muy dentro de mi
    Gb
    y te quiero sacar para no estar asi
    
  • AKI LES DEJO ESTA TRANSCRIPCION
    MEMORAMA
    MI CORREO
    ZORKO_BOY@HOTMAIL.COM POR CUALKIER COSA!!
    
    
    
    puede ser que ya no te vuelva......
    
    E-----------6---------2----------4------------
    A---4-------8-x12-----4-x12------6-x12---------
    D---6-x12---8---------4----------6-------------
    G---6-----------------------------------------
    B----------------------------------------------
    E----------------------------------------------
    Pm......................................................................
    MI………………………
    E-----------------------------
    A-----------------------------
    D-----------------------------
    G---------------8-8-8-8-7-----
    B---------------9-9-7-7-7-----
    E---------------7-7-7-7-7-----
    noo no puede sacarte noo...
    
    E-----------6---------2----------4------------
    A---4-------8-x12-----4-x12------6-x12---------
    D---6-x12---8---------4----------6-------------
    G---6-----------------------------------------
    B----------------------------------------------
    E---------------------------------
  • C#5                    A#5
    Puede Ser Que Ya No Te Vuelva A Ver
      G#5         F#5
    Y Que No Sepa Mas
                                  G#5
    No Sepa Mas De Lo Que Pasa De Ti
    Y De Mí. 1[-4-4--2-2--1-1--------
             2[-4-4--2-2--2-2--------
    C#5                  A#5
    No, No Puedo Sacarte No
                   G#5         F#5
    De Mi Mente De Todo Lo Que Me Recuerda Tu Cara
              G#5
    No Quiero Pensar Ir A Buscarte A Tu Casa. 1[-4-4--2-2--1-1--------
                                              2[-4-4--2-2--2-2--------
    C#5
    Siempre Estarás Muy Muy Dentro De Mí
         F#5
    Y Te Quiero Sacar Para No Estar Así,
          A#5             G#5                F#5       G#5
    
  • Que viva el rock!!!
    MEMORAMA (allison)
    espero este bien
    (Verso)
    Puede ser que ya no te vuelva a  ver…
    ----------------------------
    ----------------------------
    --4*------------------------
    ------4*--6*--4*--2*----4*--
    
    (Verso)
    No, no puedo sacarte …
    ----------------------------
    ----------------------------
    --4*------------------------
    --------6*---2*-----4*------
    
    (Coro)
    Siempre estarás muy…..
    ----------------------------------------
    ----------------------------------------
    --4*----------------------------------- X2
    -------4*-2*---6*-4*-2*---------------
    
    (Verso)
    Que triste es de pronto ver tu my space…
    ----------------------------
    ----------------------------
    --4*------------------------
    ------4*--6*--4*--2*----4*--
    (Verso)
    Dime tú que es lo que tengo…
    ----------------------------
    ----------------------------
    --4*------------------------
    ------4*--6*--4*--2*----4*--
    
    (Coro)
    Siempre estarás muy…..
    
    ----------------------------------------
    --------------------------------------
  • +
    ¡Colabora con nosotros!
    Envíanos tu versión de esta canción

Letra de Memorama
Puede Ser Que Ya No Te Vuelva A Ver
Y Que No Sepa Mas
No Sepa Mas De Lo Que Pasa De Ti
Y De Mí
No, No Puedo Sacarte No
De Mi Mente De Todo Lo Que Me Recuerda Tu Cara
No Quiero Pensar Ir A Buscarte A Tu Casa
Siempre Estarás Muy Muy Dentro De Mí
Y Te Quiero Sacar Para No Estar Así,
Desde Que Tú No Estas Siento Que Algo Se Perdió De Mí
Creo
Siempre Estarás Muy Muy Dentro De Mí
Y Te Quiero Sacar Para No Estar Así,
Desde Que Tú No Estas Siento Que Algo Se Perdió De Mí
Triste Es De Pronto Ver Tu MySpace
Y Ver Que Ya No Estoy En Tu Top
Y Ver Que Están Las Fotos Que También Yo Tome,
Dime Tu Que Es Lo Que Tengo Que Hacer
Pues Ya No Puedo Más, Más, Tratar De Vivir Así
Siempre Estarás Muy Muy Dentro De Mí
Y Te Quiero Sacar Para No Estar Así,
Desde Que Tú No Estas Siento Que Algo Se Perdió De Mí
Creo
Siempre Estarás Muy Muy Dentro De Mí
Y Te Quiero Sacar Para No Estar Así,
Desde Que Tú No Estas Siento Que Algo Se Perdió De Mí
Y No Te Quieres Marchar De Aquí
No Sabes Me Cuesta Vivir Así Siempre Pensando En Tu Y Yo, Pensando
Siempre Estarás Muy Muy Dentro De Mí
Y Te Quiero Sacar Para No Estar Así,
Desde Que Tú No Estas Siento Que Algo Se Perdió De Mí
Creo
Siempre Estarás Muy Muy Dentro De Mí
Y Te Quiero Sacar Para No Estar Así,
Desde Que Tú No Estas Siento Que Algo Se Perdió De Mí




[Memorama chords][Memorama cifra]
© LaCuerda.net · aviso legal · privacidad · es · en · pt · contacto