Acordes de Guitarra » A »Alfareros » Corazón de barro (Tab)

Corazón de barro
Alfareros

Letras, Notas, Punteos, Tablaturas y Acordes de Guitarra (Tabs & Chords)

  • Letra y Acordes
       E         B         C#m
    Hazme un corazon de barro
       A       F#m          B
    Rompe el corazon de piedra
       G#                  C#m
    Dale las vueltas que sea
      A        A/C#-/B        E
    Pero hazlo         a tu manera
    
    
       E         B         C#m
    Dame un corazon sencillo
     A       F#m          B
    Hazme un corazon como el tuyo
     G#                  C#m
    Usa la forma que quieras
     A         A/C#-/B                 E
    Pero hazlo        igualito que el tuyo
    
    
    
  • Tablatura
    E----4-6-4---------------4-6-5/7------------4-6-4-------------
    B----4-----5/7--5-4-4/5--4------7-5-4---4/5-4-----5/7--5-4-4/5
    G-------------------------------------------------------------
    D-------------------------------------------------------------
    A-------------------------------------------------------------
    E-------------------------------------------------------------
    
    E-----5-8---3---
    B---------6-4---
    G-5-7-----7-----
    
    EL INTER
    
    E---------------------------------------------
    B------5-5-6-6/8-----5-5-6-6/8----5-6-8-8/10-- x3
    G--5-7-----------5-7-----------5-7------------
    D---------------------------------------------
    A---------------------------------------------
    E---------------------------------------------
    
    
  • +
    ¡Colabora con nosotros!
    Envíanos tu versión de esta canción

Letra de Corazón de barro
Hazme un corazon de barro
Rompe el corazon de piedra
Dale las vueltas que sea
Pero hazlo a tu manera
Dame un corazon sencillo
Hazme un corazon como el tuyo
Usa la forma que quieras
Pero hazlo igualito que el tuyo
Como quieres señor, como quieres que sea
Dale la forma de ser, hazlo a tu manera
Que tenga tu paciencia tu amor, que tenga tu voluntad
que tenga tu libertad y llene esa paz con Dios
Que tenga lo que me falta y sobre lo que no tengo
Hazme un corazon de barro es todo lo que yo quiero
Que tenga tu sencillez siempre tan lleno de luz
Perdona como perdonas mira que bien lo haces tu
Hazme un corazon de niño un corazon limpio y puro
Dale vueltas con tus manos
Y hazme un corazon como el tuyo
Hazme un corazon de barro
Rompe el corazon de piedra
Dale las vueltas que sea
Pero hazlo a tu manera
Espero que la disfruten y sigan alabando a Dios por medio de la musica
para cualquier informacion acerca de este grupo angeledu_151@hotmail.com



© LaCuerda.net · Aviso Legal · Privacidad