Acordes de Guitarra » A »Alex sirvent » Junto a ti (Tab)

Junto a ti
Alex sirvent

Letras, Acordes y Tabs para Guitarra, Bajo y Ukulele

  • C                            F
    Definitivamente nada que cambiar,
    G                                   C
    te has convertido en toda mi felicidad
    C                           F
    definitivamente basta respirar
    G                              C
    para sentir completa tu totalidad.
    
    Am                   Em
    Hay un ángel en tus ojos vida mía
      F
    hay un ángel que respira,
    G
    tan solo quiero estar
    
            C
    junto a ti,
    F          G
    perderme, gritarle al universo
    
  • C-F-G-C
    
    C                             F
    Definitivamente nada que cambiar,
    G                                   C
    te has convertido en toda mi felicidad
    C                        F
    definitivamente basta respirar
    G                              C
    para sentir completa tu totalidad.
    
    Am                  Em
    Hay un ángel en tus ojos vida mía
           F
    hay un ángel que respira,
         G                        C
    tan solo quiero estar junto a ti,
         F          G
    perderme, gritarle al universo
                          C
    
  • e|-------------------------------|
    B|----------------------8--------|
    G|----5-7-7H9-7-9-7-9-7----------|
    D|------------------------5-5H7-7|
    A|-------------------------------|
    E|-------------------------------|
    
    e|-------------------------------|
    B|-------------------------------|
    G|------------------------7-5h7-5|
    D|----5-7-7h9-7-9-7-9-7-5--------|
    A|-------------------------------|
    E|-------------------------------|
    
    TRATEN DE TOCAR LOS ACORDES CON ARPEGIO
    PARA Q SUENE MEJOR HASTA Q EMPIESE EL CORO.
    
    ALGO ASI:
    en C
    e|-0-| |-------0------|  hagan esto con todos los acordes
    
  • Intro: C-F-G-C
    
    
    E|--------------------------------------------------------------
    A|--------------------------------------------------------------
    D|--------------------------------------------------------------
    G|----------------------0-0-2-0h2----0-2-2/4-2-4-2-4-2-0--------
    B|--1--3-3/5-3-5-3-5-3----------------------------------3-0-1-1-
    E|--------------------3-----------------------------------------
    
     C                          F
       Definitivamente nada que cambiar,
    E---------------------------1---------------
    A-3-----------------------------------------
    D----2-------------------------3------------
    G------0---0---0-----------------2----0h2-2-
    B--------1---1----------------------1-------
    E-------------------------------------------
    
       G                               C
    
  • +
    ¡Colabora con nosotros!
    Envíanos tu versión de esta canción

Letra de Junto a ti
Definitivamente nada que cambiar,
te has convertido en toda mi felicidad
definitivamente basta respirar
para sentir completa tu totalidad.
Hay un ángel en tus ojos vida mía
hay un ángel que respira,
tan solo quiero estar
junto a ti,
perderme, gritarle al universo
que estoy hecho para ti, no hay más
junto a ti, fundirme
y en un instante huir de todo lo demás
la vida quiero pasarla junto a ti.
Definitivamente nada que cambiar,
te has convertido en toda mi felicidad
definitivamente basta respirar
para sentir completa tu totalidad.
Hay un ángel en tus ojos vida mía
hay un ángel que respira, me da la vida
tan solo quiero estar
junto a ti,
perderme, gritarle al universo
que estoy hecho para ti, no hay más
junto a ti, fundirme
y en un instante huir de todo lo demás
la vida quiero pasarla junto a ti.
Espero les guste esta cancion y este bien cualquier
cosa avisenme la saque con capo
en el primer traste...saken el intro para ke me lo pasen porfa

Video de Junto a ti
[]




[Junto a ti chords][Junto a ti cifra]
© LaCuerda.net · aviso legal · privacidad · es · en · pt · contacto