Acordes de Guitarra » A »Alex Rivera » Vuelve Pronto (Tab)

Vuelve Pronto
Alex Rivera

Letras, Notas, Punteos, Tablaturas y Acordes de Guitarra (Tabs & Chords)

  • Letra y Acordes
    Intro    C  C7  F  G  C  Riff 1  F  G
    
    Riff 1
    e-------------------------
    B-------------------------
    G-------------------------
    D--2--0-------------------
    A--------3----2--0--------
    E-------------------3-1---
    
    C                              C7     F        G
       Sé que tal vez amor ya no quieres ni verme,
                                  C
    y que tu corazón se ha olvidado de mí,
                              C7   F
    pero quiero decirte tan solo una cosa,
           G                        C    Riff 2
    que te amo, y no quiero estar así.
    
    CORO
    
  • Tablatura
    1.-------------0-0---0-0---0-0-------------0--
    2.-------------1-1---1-1---1-1-------------1--
    3.-------------0-0---0-0---0-0-------------0--
    4.-----------------------------------------2--
    5.------3-0-3-------------3-----3-0-3-0-3--3--
    6.---3-0------------3-------------------------
    
    
    
    1.-----0---0-3---1-----0-0/1-0------3-------------------------------------1----
    2.--1-3-3-1--------1---0-0-----3-1/---3--------5-3-5-3-1-1-0/1-0---------1--1--
    3.--------0----------2------------------4------------------------2-0-2--2----2-
    4.----------------------------------------5--5-----5-4-2---------------3-------
    5.--3--------------------------------------------------------------------------
    6.---------------1------------------3--------------------------------1---------
    
    
    
    1.------------3------
    2.--0-1-0----3--3----
    
  • +
    ¡Colabora con nosotros!
    Envíanos tu versión de esta canción

Letra de Vuelve Pronto
Riff 1
Sé que tal vez amor ya no quieres ni verme,
y que tu corazón se ha olvidado de mí,
pero quiero decirte tan solo una cosa,
que te amo, y no quiero estar así.
Pues me muero si no estás aquí, conmigo mi amor,
me falta el aire, eres mi respiración,
pues me muero sin tu amor uh oh oh oh uh oh!
me haces falta, regresa por favor,
te necesito, sin ti no vivo,
vuelve pronto por favor.
Hablado:
“Si tan solo pudiera regresar el tiempo,
y volver a tocar tus manos y a besar tus labios, yo daría todo,
recuerda mi amor que aquí tu lugar te está esperando
porque te amo, vuelve, vuelve pronto”
...vuelve pronto, vuelve pronto por favor.
Riff 2



© LaCuerda.net · Aviso Legal · Privacidad
DINAMICO