Acordes de Guitarra » A »Alex Ibarra » Ese Silencio (Tab)

Ese Silencio
Alex Ibarra

Letras, Acordes y Tabs para Guitarra, Bajo y Ukulele

  •  ( Bm -  F#m - Bm - F#m - Bm - G - A )
     Que te beso suavemente
     Que no existe otra gente
     Por tu amor soy un demente
     Y eso no fue derrepente
     
     Perdoname, no quiero molestar
     Mas no puedo evitar
     Me vuelves loco al caminar
     No se como escapar
     De mi cruda realidad
     Te llevo aqui en mi mente
     Tu siempre estas presente.
      
     ( D - A - Bm - G - A )
     Coro    Pretento que surge ese silencio
             Para poder robarte el primer beso
             Pretendo que surge ese momento
             El momento de nuestro encuentro
     
    
  •      RE  LA                SOL        LA          RE
    1) Hoy te vuelvo a mirar entiende que no me puedo controlar
     LA                 SOL
    te vuelvo a pensar, tal vez no pueda pasar, pero me
      LA             SIm                     LA  
    encanta imaginar que te beso suavemente, que no existe 
                SIm                               SOL 
    otra gente que por tu amor soy un demente y eso no
                LA
    fue derrepente..
    
    
          RE    LA                 SOL
    Perdoname, no quiero molestar, mas no puedo evitar 
    LA                          SIm
    me vuelves loco al caminar, no se como 
              LA                 SIm
    escapar de mi cruda realidad te llevo 
                       SOL              LA
    aquí en mi mente, tu siempre estas presente...
    
  • e-----3*2----------10*9-------------8*7----7-------------|
    B---------3-------------10---------8----8--8-------------|
    G---2-------2----9---------9-----7---------7-------------|
    D-0---------------------------0--------------------------|
    A--------------0-----------------------------------------|
    E----------------------------(3)-------------------------|
    
    
    e------------3-----3*2----------10*9-----------8*7----7--|
    B----------3-----------3------------10--------8----8--8--|
    G--------0-------2-------2----9--------9----7---------7--|
    D------0-------0-------------------------0---------------|
    A----2----------------------0----------------------------|
    E--3------------------------------------(3)--------------|
    
    
       Hoy                          te vuelvo a mirar
    e----2-------2-------------2--------------0---------0----|
    B---3------3---3---3-----3---3---3-------2--2--2---2--2-2|
    G--2-----2-------2-----2-------2-------2-----2----2----2-|
    
  • +
    ¡Colabora con nosotros!
    Envíanos tu versión de esta canción

Letra de Ese Silencio
Que te beso suavemente
Que no existe otra gente
Por tu amor soy un demente
Y eso no fue derrepente

Perdoname, no quiero molestar
Mas no puedo evitar
Me vuelves loco al caminar
No se como escapar
De mi cruda realidad
Te llevo aqui en mi mente
Tu siempre estas presente.

( D - A - Bm - G - A )
Para poder robarte el primer beso
Pretendo que surge ese momento
El momento de nuestro encuentro

No puedo evitar este sentimiento
Y menos puedo evitar
El enamorarme mas de ti.

Vez, si es que algo vez
No puedo dejar de pensarte una y otra vez
Hasta el amanecer pues busco tu querer
Como hacerte comprender

Que por ti daria todo
Debe ser de algun modo
Que tan solo por un beso
Por siempre sere tu preso.


( D - A - Bm - A )
Y hoy tu te preguntas
Que por que lo digo asi
La razon es que con mi musica
Es como yo te lo puedo decir
Es como mejor te lo puedo yo decir.

Video de Ese Silencio
[]




[Ese Silencio chords][Ese Silencio cifra]
© LaCuerda.net · aviso legal · privacidad · es · en · pt · contacto